KANASHIMI NO MUKOU HE

SCHOOL DAYS

TABS ~ By Fefe (Tron544)

 

Intro:

 

e|-------------------------------------------|

B|-----10-b--10------------------------------|

G|--7------------10--7----7--10-b--10--7-----|

D|----------------------------------------8--|

A|-------------------------------------------|

E|-------------------------------------------|

 

e|---------------------------------|

B|---------------------------------|

G|---------------7----------10--7--|

D|------7--8--8-----10--10---------|

A|--10-----------------------------|

E|---------------------------------|

 

e|-------------------------------------------|---------------------------------|

B|-----10-b--10------------------------------|--------------------------8--10--|

G|--7------------10--7----7--10-b--10--7-----|---------------7------10---------|

D|----------------------------------------8--|------7--8--8-----10-------------|

A|-------------------------------------------|--10-----------------------------|

E|-------------------------------------------|---------------------------------|

 

 

Verse/Estrofa:

 

e|--------------------------------|-------------------------------|

B|--------------------------------|-------------------------------|

G|--7----7--7--8--10--10----------|----------------7--8--8--------|

D|------------------------10--10--|--10----10--10-----------8--8--|

A|--------------------------------|-------------------------------|

E|--------------------------------|-------------------------------|

 

e|-------------------------------------|------------------------|

B|-------------------------------------|------------------------|

G|-------------------------------------|------------------------|

D|--8----8--10--11--8----8--10--11--8--|------10--8--8----7--7--|

A|-------------------------------------|--10--------------------|

E|-------------------------------------|------------------------|

 

 

Pre-Chorus/Pre-Estribillo:

 

e|-----------------------------------|----------------------------------------|

B|-----------------------------------|----------10-b--------------------------|

G|--7----7--7--8--10--10----8--7--8--|-----8----------8--------8----7------7--|

D|-----------------------------------|--8------------------10----------10-----|

A|-----------------------------------|----------------------------------------|

E|-----------------------------------|----------------------------------------|

 

e|-------------------------------------------|---------------------------------|

B|------------------------------------10--8--|---------------10-b------8----7--|

G|-------------7---------7---------7---------|--7--10----10--------10----------|

D|--10--8--10-----8--10-----8--10------------|---------------------------------|

A|-------------------------------------------|---------------------------------|

E|-------------------------------------------|---------------------------------|

Kanashimi no Mukou he - Tron544
00:00 / 00:00
DONATE%20BUTTON%20(EN)_edited.png

First Chorus/Primer Estribillo:

 

e|-------------------------------------------|---------------------------------|

B|-----10-b--10------------------------------|---------------------------------|

G|--7------------10--7----7--10-b--10--7-----|---------------7----------10--7--|

D|----------------------------------------8--|------7--8--8-----10--10---------|

A|-------------------------------------------|--10-----------------------------|

E|-------------------------------------------|---------------------------------|

 

e|-------------------------------------------|--------------------------------------|

B|-----10-b--10------------------------------|------------------------------8----8--|

G|--7------------10--7----7--10-b--10--7-----|---------------7----------10----------|

D|----------------------------------------8--|------7--8--8-----10--10--------------|

A|-------------------------------------------|--10----------------------------------|

E|-------------------------------------------|--------------------------------------|

 

 

Pre-Chorus/Pre-Estribillo:

 

e|-----------------------------------|----------------------------------------|

B|-----------------------------------|----------10-b--------------------------|

G|--7----7--7--8--10--10----8--7--8--|-----8----------8--------8----7------7--|

D|-----------------------------------|--8------------------10----------10-----|

A|-----------------------------------|----------------------------------------|

E|-----------------------------------|----------------------------------------|

 

e|-------------------------------------------|-------------------------------|

B|------------------------------------10--8--|-------------10-b------8----7--|

G|-------------7---------7---------7---------|--7--10------------10----------|

D|--10--8--10-----8--10-----8--10------------|-------------------------------|

A|-------------------------------------------|-------------------------------|

E|-------------------------------------------|-------------------------------|

 

 

Second Chorus/Segundo Estribillo:

 

e|-------------------------------------------|---------------------------------|

B|-----10-b--10------------------------------|---------------------------------|

G|--7------------10--7----7--10-b--10--7-----|---------------7----------10--7--|

D|----------------------------------------8--|------7--8--8-----10--10---------|

A|-------------------------------------------|--10-----------------------------|

E|-------------------------------------------|---------------------------------|

 

e|-------------------------------------------|--------------------------------------|

B|-----10-b--10------------------------------|------------------------------8----8--|

G|--7------------10--7----7--10-b--10--7-----|---------------7----------10----------|

D|----------------------------------------8--|------7--8--8-----10--10--------------|

A|-------------------------------------------|--10----------------------------------|

E|-------------------------------------------|--------------------------------------|

 

e|--------------------------------------------|-----------------------------------|

B|-----12-b--12-------------------------------|-----------------------------------|

G|--9------------12--9----9--12-b--12--9------|-----------------9----------12--9--|

D|----------------------------------------10--|------9--10--10-----12--12---------|

A|--------------------------------------------|--12-------------------------------|

E|--------------------------------------------|-----------------------------------|

 

e|--------------------------------------------|------------------------------------|

B|-----12-b--12-------------------------------|----------------------------10--12--|

G|--9------------12--9----9--12-b--12--9------|-----------------9------12----------|

D|----------------------------------------10--|------9--10--10-----12--------------|

A|--------------------------------------------|--12--------------------------------|

E|--------------------------------------------|------------------------------------|

©2015 by Fefe - Tron544

Sigueme en:

  • YouTube - White Circle
  • Facebook - White Circle
  • Instagram - White Circle
  • Twitter - White Circle
This site was designed with the
.com
website builder. Create your website today.
Start Now