KAIKAI KITAN

JUJUTSU KAISEN

CHORDS ~ By Fefe (Tron544)

 

Chords used/Acordes utilizados:

Bb: x.1.3.3.3.1  -  Bb7: 6.8.6.7.6.6   -  Bb*: x.x.3.3.3.x
Bb/D: x.5.8.7.6.x
B*: x.x.4.4.4.x
Cm7: x.3.5.3.4.3  -  C*: x.x.5.5.5.x  -  C7*: x.x.5.3.5.x
Dbmaj7: x.4.6.5.6.4  -  Dbmaj9: x.4.3.5.4.x
D7: x.5.7.5.7.5  -  D7sus4: x.5.7.5.8.5  -  Dm7: x.5.7.5.6.5
Ebmaj7: x.6.8.7.8.6  -  Ebmaj9: x.6.5.7.6.x
Fm7: 1.3.1.1.1.1  -  F*: x.x.3.2.1.x
F#m7: 2.4.2.2.2.2
Gm7: 3.5.3.3.3.3

%: Same as the previous measure/Lo mismo que el compas anterior

 

| Ebmaj9 | Ebmaj9 / C* B* |

  /~~~~~~~~~~~~~~~~( REPEAT x2 / REPITE x2 )~~~~~~~~~~~~~~~~\
e|-----------------------------------------------------------|---------------|
B|--3-2-3--5--#-3--3-3--6-5-#-3--3-3--#-3--3--3-3-3-3-3-3-3--|--3------------|
G|--3-2-3--5--#-3--3-3--6-5-#-3--3-3--#-3--3--3-3-3-3-3-3-3--|--3------------|
D|--3-2-3--5--#-3--3-3--6-5-#-3--3-3--#-3--3--3-3-3-3-3-3-3--|--3------------|
A|-----------------------------------------------------------|---------------|
E|--3-2-3-------3--3-3--------3--3-3-------------------------|---------------|


   Uzou muzou hito no nari
   Kyosei shinshou jingai aa mononoke mitai da

e|-----------------------------------------------------------|
B|--3-2-3--5--#-3--2-3--6-5-#-3--2-3--5--#-3--3-3-3-3-3-3-3--|
G|--3-2-3--5--#-3--2-3--6-5-#-3--2-3--5--#-3--3-3-3-3-3-3-3--|
D|--3-2-3--5--#-3--2-3--6-5-#-3--2-3--5--#-3--3-3-3-3-3-3-3--|
A|-----------------------------------------------------------|
E|--3-2-3-------3--2-3--------3--2-3-------------------------|

   Kyoshin tankai inochi yadoshi
   Ato wa pappara pa na nakami naki ningen

e|---------------------------------------------------------|
B|--3-2-3--5--#-3--2-3--6-5-#-3--2-3--5--#-3--3-3-3-3-3----|
G|--3-2-3--5--#-3--2-3--6-5-#-3--2-3--5--#-3--3-3-3-3-3----|
D|--3-2-3--5--#-3--2-3--6-5-#-3--2-3--5--#-3--3-3-3-3-3----|
A|---------------------------------------------------------|
E|--3-2-3-------3--2-3--------3--2-3-----------------------|

   Yoseru kitai fubyoudou na jinsei
   Sainou mo nai daijou hi nichijou ga

e|-----------------------------------------------------------|
B|--3-2-3--5--#-3--2-3--6-5-#-3--2-3--5--#-3--3-3-3-3-3-3-3--|
G|--3-2-3--5--#-3--2-3--6-5-#-3--2-3--5--#-3--3-3-3-3-3-3-3--|
D|--3-2-3--5--#-3--2-3--6-5-#-3--2-3--5--#-3--3-3-3-3-3-3-3--|
A|-----------------------------------------------------------|
E|--3-2-3-------3--2-3--------3--2-3-------------------------|

   Onshin byoudou ni botsu kosei
   Tadoru kioku boku ni ibasho nado nai kara

e|---------------------------------------------------------|
B|--3-2-3--5--#-3--2-3--6-5-#-3--2-3--5--#-3--3-3-3-3-3-#--|
G|--3-2-3--5--#-3--2-3--6-5-#-3--2-3--5--#-3--3-3-3-3-3-#--|
D|--3-2-3--5--#-3--2-3--6-5-#-3--2-3--5--#-3--3-3-3-3-3-#--|
A|---------------------------------------------------------|
E|--3-2-3-------3--2-3--------3--2-3-----------------------|


Ebmaj7                    Bb/D
   Yume no hazama de naitenaide
                      (Dbmaj7)
   Donna kao sureba ii ka wakatteru
               Ebmaj7       D7
   Dakedo mada kotaete kure yo

 


             Gm7
   Yami wo haratte yami wo haratte
       F#m7  Fm7             Bb7
   Yoru no tobari ga oritara aizu da
         Ebmaj7
   Aitai shite mawaru kanjousen
                 D7sus4          D7
   Zaregoto nado wa hakisute ike to
            Gm7
   Mada tomenaide mada tomenaide
        F#m7 Fm7             Bb7                  Ebmaj7
   Dare yori mo satoku aru machi ni umareshi kono shoutai wo
                       D7sus4             D7               Bb*
   Ima wa tada noroi norowareta boku no mirai wo souzou shite
        F*       Bb*
   Hashitte koronde
          C7*
   Kienai kangaite wa
     Cm7    Dm7  Ebmaj7
   Sekai ga matteru
               Dbmaj9      Bb
   Kono isshun wo

e|-----------------------------------------------------------|
B|--3-2-3--5--#-3--3-3--6-5-#-3--3-3--#-3--3--3-3-3-3-3-3-3--|
G|--3-2-3--5--#-3--3-3--6-5-#-3--3-3--#-3--3--3-3-3-3-3-3-3--|
D|--3-2-3--5--#-3--3-3--6-5-#-3--3-3--#-3--3--3-3-3-3-3-3-3--|
A|-----------------------------------------------------------|
E|--3-2-3-------3--3-3--------3--3-3-------------------------|

Kaikai Kitan - Tron544
00:00 / 00:00
DONATE%20BUTTON%20(EN)_edited.png

TABS ~ By Fefe (Tron544)

 

Intro:

e|----------------------------------------|
B|-----------13-------------18-15---------|
G|--------10-----10------15---------------|
D|--12-12-----------12--------------------|
A|----------------------------------------|
E|----------------------------------------|

e|--------------------------------------------------------------------------|
B|--------------------------------------------------------------------------|
G|----12-----10-----------------------------------10------------------------|
D|-------10------12--8--8-10-b10r-10-8---10----8-----12---8-8-10-b10r-10-8--|
A|------------------------------------------10------------------------------|
E|--------------------------------------------------------------------------|

e|---------------------------------------------------------------------------------------|
B|---------------------------------------------------------------------------------------|
G|-----12-----10-----------------------------------10------------------------------------|
D|--8-----10------12--8--8-10-b10r-10-8---10----8-----12---8-8-10-b10r-10-8-8------------|
A|-------------------------------------------10------------------------------------------|
E|---------------------------------------------------------------------------------------|


Verse/Estrofa:

e|---------------------------------------------------------|
B|---------------------------------------------------------|
G|---------------------------------------------------------|
D|----------------------------------------5--5-3-3---------|
A|---3-5--5--3-5--3-5--3-5--3-5--3-5---------------5--3----|
E|------------------------------------6-6---------------6--|

e|--------------------------------------------------------|
B|--------------------------------------------------------|
G|--------------------------------------------------------|
D|----------------------------------------5--5-3-3--------|
A|---3-5--3-5--3-5--3-5--3-5-3-5--5--5-------------5--3---|
E|--------------------------------------6-----------------|

e|-----------------------------------------------------------|
B|-----------------------------------------------------------|
G|-----------------------------------------------------------|
D|-------------------------------------------5--5-3-3--------|
A|---3-5--3-5--3-5--5--3--5-3--5--3-5-3-5------------5--3----|
E|----------------------------------------6---------------6--|

e|----------------------------------------------------------|
B|----------------------------------------------------------|
G|----------------------------------------------------10-7--|
D|----------------------------------------5--5-5-7-8--------|
A|---3-5--3-5--3-5--3-5--3-5--3-5--3-5----------------------|
E|--------------------------------------6-------------------|


Pre-Chorus/Pre-Estribillo:

e|---------------------------------------------------------------|
B|--------------------11--10-------------------------------------|
G|---------------------------10--10\7------------------10-7------|
D|-------8-8-8-8--8-8--------------------8-8-8-10--8-8-------10--|
A|---------------------------------------------------------------|
E|---------------------------------------------------------------|

e|------------------------------------------------|
B|-----------------------------------------11-10--|
G|------10---7-------------------7-7-7-7-7--------|
D|----8--------10---8-8--8-10-8-------------------|
A|------------------------------------------------|
E|------------------------------------------------|


Chorus/Estribillo:

e|---------------|---------------------------------------------------------------------|
B|--------11-10--|---11--------11-10--11----------8------------------------------------|
G|---------------|-----------------------------------10-10-7-7-8-10-7----------10--10--|
D|--8-8-8--------|-------8-8-8------------8-8-8-8----------------------10-8--8---------|
A|---------------|---------------------------------------------------------------------|
E|---------------|---------------------------------------------------------------------|

e|----------------------------------------------------------------------|
B|---------------------------------------------11-11-\10---------11-10--|
G|-----------10--10---------------------7--7-7--------------------------|
D|---8-8-8-8---------8-8-8-8-7-8-10--10--------------------8-8-8--------|
A|----------------------------------------------------------------------|
E|----------------------------------------------------------------------|

e|------------------------------------------------------------10--|
B|---11--------11-10--11----------8-----8--8--8--8--8--8-8-11-----|
G|-----------------------------------10---------------------------|
D|-------8-8-8------------8-8-8-8---------------------------------|
A|----------------------------------------------------------------|
E|----------------------------------------------------------------|

e|---8-p6-8-p6--------6----------------------------------------------------|
B|--------------8-6-8--------------11-10-8-10-8----8---------8--10--10/11--|
G|----------------------------------------------11---11--11----------------|
D|-----------------------8-8-8-8-8-----------------------------------------|
A|-------------------------------------------------------------------------|
E|-------------------------------------------------------------------------|

e|------------------------------------------------------------|
B|--------------------------------------------8---------------|
G|-------------------------10--10-----------7----7------------|
D|---------8--8/10---\8--8----------8-8-8-8---------10-8---8--|
A|------10----------------------------------------------------|
E|------------------------------------------------------------|

e|--------------------------------------------------------|
B|--------------------------------------------------------|
G|--8--8-10-----------------------------------------------|
D|--------------8-------------10-/12-\10-----8------------|
A|-----------10-----10-10-10------------------------------|
E|--------------------------------------------------------|


Outro:

e|--------------------------------------------------------------------------|
B|--------------------------------------------------------------------------|
G|----12-----10-----------------------------------10------------------------|
D|-------10------12--8--8-10-b10r-10-8---10----8-----12---8-8-10-b10r-10-8--|
A|------------------------------------------10------------------------------|
E|--------------------------------------------------------------------------|

©2015 by Fefe - Tron544

Sigueme en:

  • YouTube - White Circle
  • Facebook - White Circle
  • Instagram - White Circle
  • Twitter - White Circle
This site was designed with the
.com
website builder. Create your website today.
Start Now