~ KAIDOKU FUNOU ~

TABLATURAS ~ By Fefe - Tron544

 

Intro: x2

 

e|-----------------------------------------------------------|
B|-----------------------------------------------------------|
G|-----------------------------------------------------------|
D|---------2------------2------------------------------------|
A|--2-h-4--------2-h-4--------2-h-4--4-----------------------|
E|------------0------------0------------2--2--2--5--2--0--0--|

 


First Verse/Primera Estrofa:

 

GUITAR 1:

 

  /~~~~~~~~~~~~~~~~( REPEAT x2 / REPITE x2 )~~~~~~~~~~~~~~~~\
e|-----------------------------------------------------------|
B|-----------------------------------------------------------|
G|-----------------------------------------------------------|
D|---------2------------2------------------------------------|
A|--2-h-4--------2-h-4--------2-h-4--4-----------------------|
E|------------0------------0------------2--2--2--5--2--0--0--|

 

GUITAR 2:

 

e|---------------------------|-------------------------|
B|---------------------------|-------------------------|
G|--11--9----9--9------------|--11--9----9--9--11--11--|
D|-----------------9--9--11--|-------------------------|
A|---------------------------|-------------------------|
E|---------------------------|-------------------------|

 

GUITAR 1:

 

  /~~~~~~~~~~~~~~~~( REPEAT x2 / REPITE x2 )~~~~~~~~~~~~~~~~\
e|-----------------------------------------------------------|
B|-----------------------------------------------------------|
G|-----------------------------------------------------------|
D|---------2------------2------------------------------------|
A|--2-h-4--------2-h-4--------2-h-4--4-----------------------|
E|------------0------------0------------2--2--2--5--2--0--0--|

 

GUITAR 2:

 

e|---------------------------|----------------------------------|
B|---------------------------|----------10--10----------10--10--|
G|--11--9----9--9------------|--11--9------------9--9-----------|
D|-----------------9--9--11--|----------------------------------|
A|---------------------------|----------------------------------|
E|---------------------------|----------------------------------|

 


First Chorus/Primer Estribillo:

 

GUITAR 1:

e|-----------------------------------------------------------------------------------------|
B|-----------------------------------------------------------------------------------------|
G|--4--4--4--4--4--4--6---4--4--4--4--4--4--6---9--9--9--9--9--9--9---6--6--6--6--6--6--6--|
D|-----------------------------------------------------------------------------------------|
A|--2--2--2--2--2--2--4---2--2--2--2--2--2--4---7--7--7--7--7--7--7---4--4--4--4--4--4--4--|
E|-----------------------------------------------------------------------------------------|

 

GUITAR 2:

 

e|---------------------------------------------------------------------|
B|--10---12--10---10---12--10--10---10---12--10--10---10---12--10------|
G|------------------------------------------------------------------9--|
D|---------------------------------------------------------------------|
A|---------------------------------------------------------------------|
E|---------------------------------------------------------------------|

 

GUITAR 1:

 

e|------------------------------------------------------------------------------------------------|
B|------------------------------------------------------------------------------------------------|
G|--4--4--4--4--4--4--6---4--4--4--4--4--4--6---9--9--9--9--9--9--9---11--11--11--11--11--11--11--|
D|------------------------------------------------------------------------------------------------|
A|--2--2--2--2--2--2--4---2--2--2--2--2--2--4---7--7--7--7--7--7--7---9---9---9---9---9---9---9---|
E|------------------------------------------------------------------------------------------------|

 

GUITAR 2:

 

e|-----------------------------------------|
B|-----------------------------------------|
G|--9-h-11---11-p-9-------9-h-11---11-p-9--|
D|--------------------11-------------------|
A|-----------------------------------------|
E|-----------------------------------------|

 

GUITAR 1:

 

e|-----------------------------------------------------------------------------------------|
B|-----------------------------------------------------------------------------------------|
G|--4--4--4--4--4--4--6---4--4--4--4--4--4--6---9--9--9--9--9--9--9---6--6--6--6--6--6--6--|
D|-----------------------------------------------------------------------------------------|
A|--2--2--2--2--2--2--4---2--2--2--2--2--2--4---7--7--7--7--7--7--7---4--4--4--4--4--4--4--|
E|-----------------------------------------------------------------------------------------|

 

GUITAR 2:

 

e|--------------------------------------------------------9--------------|
B|--10---12--10---10---12--10--10---10---12--10--10---12-----12--10--12--|
G|-----------------------------------------------------------------------|
D|-----------------------------------------------------------------------|
A|-----------------------------------------------------------------------|
E|-----------------------------------------------------------------------|

 

GUITAR 1:

 

e|---------------------------------------------|
B|---------------------------------------------|
G|--4--4--4--4--4--4--6---4--4--4--4--4--4--4--|
D|---------------------------------------------|
A|--2--2--2--2--2--2--4---2--2--2--2--2--2--2--|
E|---------------------------------------------|

 

GUITAR 2:

 

e|---------------------------------|
B|--10----------10--10--9--10--10--|
G|--------9--9---------------------|
D|---------------------------------|
A|---------------------------------|
E|---------------------------------|

 


Second Verse/Segunda Estrofa:

 

GUITAR 1:

 

  /~~~~~~~~~~~~~~~~( REPEAT x2 / REPITE x2 )~~~~~~~~~~~~~~~~\
e|-----------------------------------------------------------|
B|-----------------------------------------------------------|
G|-----------------------------------------------------------|
D|---------2------------2------------------------------------|
A|--2-h-4--------2-h-4--------2-h-4--4-----------------------|
E|------------0------------0------------2--2--2--5--2--0--0--|

 

GUITAR 2:

 

e|---------------------------|-------------------------|
B|---------------------------|-------------------------|
G|--11--9----9--9------------|--11--9----9--9--11--11--|
D|-----------------9--9--11--|-------------------------|
A|---------------------------|-------------------------|
E|---------------------------|-------------------------|

 

GUITAR 1:

 

  /~~~~~~~~~~~~~~~~( REPEAT x2 / REPITE x2 )~~~~~~~~~~~~~~~~\
e|-----------------------------------------------------------|
B|-----------------------------------------------------------|
G|-----------------------------------------------------------|
D|---------2------------2------------------------------------|
A|--2-h-4--------2-h-4--------2-h-4--4-----------------------|
E|------------0------------0------------2--2--2--5--2--0--0--|

 

GUITAR 2:

 

e|---------------------------|------------------------------------------------|
B|---------------------------|----------10--10----------10--10--10-/-12-\-10--|
G|--11--9----9--9------------|--11--9------------9--9-------------------------|
D|-----------------9--9--11--|------------------------------------------------|
A|---------------------------|------------------------------------------------|
E|---------------------------|------------------------------------------------|

 


Second Chorus/Segundo Estribillo:

 

GUITAR 1:

 

e|-----------------------------------------------------------------------------------------|
B|-----------------------------------------------------------------------------------------|
G|--4--4--4--4--4--4--6---4--4--4--4--4--4--6---9--9--9--9--9--9--9---6--6--6--6--6--6--6--|
D|-----------------------------------------------------------------------------------------|
A|--2--2--2--2--2--2--4---2--2--2--2--2--2--4---7--7--7--7--7--7--7---4--4--4--4--4--4--4--|
E|-----------------------------------------------------------------------------------------|

 

GUITAR 2:

 

e|---------------------------------------------------------------------|
B|--10---12--10---10---12--10--10---10---12--10--10---10---12--10------|
G|------------------------------------------------------------------9--|
D|---------------------------------------------------------------------|
A|---------------------------------------------------------------------|
E|---------------------------------------------------------------------|

 

GUITAR 1:

 

e|------------------------------------------------------------------------------------------------|
B|------------------------------------------------------------------------------------------------|
G|--4--4--4--4--4--4--6---4--4--4--4--4--4--6---9--9--9--9--9--9--9---11--11--11--11--11--11--11--|
D|------------------------------------------------------------------------------------------------|
A|--2--2--2--2--2--2--4---2--2--2--2--2--2--4---7--7--7--7--7--7--7---9---9---9---9---9---9---9---|
E|------------------------------------------------------------------------------------------------|

 

GUITAR 2:

 

e|-----------------------------------------|
B|-----------------------------------------|
G|--9-h-11---11-p-9-------9-h-11---11-p-9--|
D|--------------------11-------------------|
A|-----------------------------------------|
E|-----------------------------------------|

 

GUITAR 1:

 

e|-----------------------------------------------------------------------------------------|
B|-----------------------------------------------------------------------------------------|
G|--4--4--4--4--4--4--6---4--4--4--4--4--4--6---9--9--9--9--9--9--9---6--6--6--6--6--6--6--|
D|-----------------------------------------------------------------------------------------|
A|--2--2--2--2--2--2--4---2--2--2--2--2--2--4---7--7--7--7--7--7--7---4--4--4--4--4--4--4--|
E|-----------------------------------------------------------------------------------------|

 

GUITAR 2:

 

e|--------------------------------------------------------9--------------|
B|--10---12--10---10---12--10--10---10---12--10--10---12-----12--10--12--|
G|-----------------------------------------------------------------------|
D|-----------------------------------------------------------------------|
A|-----------------------------------------------------------------------|
E|-----------------------------------------------------------------------|

 

GUITAR 1:

 

e|---------------------------------------------|
B|---------------------------------------------|
G|--4--4--4--4--4--4--6---4--4--4--4--4--4--4--|
D|---------------------------------------------|
A|--2--2--2--2--2--2--4---2--2--2--2--2--2--2--|
E|---------------------------------------------|

 

GUITAR 2:

 

e|---------------------------------|
B|--10----------10--10--9--10--10--|
G|--------9--9---------------------|
D|---------------------------------|
A|---------------------------------|
E|---------------------------------|

 


Outro:

 

GUITAR 1:

 

e|--------------------------------------------------------|
B|--------------------------------------------------------|
G|--4---6---6-/-9----9--9---6----4---6---6-/-9----9----6--|
D|--------------------------------------------------------|
A|--2---4---4-/-7----7--7---4----2---4---4-/-7----7----4--|
E|--------------------------------------------------------|

 

GUITAR 2:

 

e|----------------------------------------|
B|--10--10-h-12--10------10--10-h-12--10--|
G|----------------------------------------|
D|----------------------------------------|
A|----------------------------------------|
E|----------------------------------------|

 

 

 

Kaidoku Funou - Tron544
00:00 / 00:00

©2019 by Fefe - Tron544

Sigueme en:

  • YouTube - White Circle
  • Facebook - White Circle
  • Instagram - White Circle
  • Twitter - White Circle
This site was designed with the
.com
website builder. Create your website today.
Start Now