~ KAEN ~

TABLATURAS ~ By Fefe - Tron544

 

Verse/Estrofa:

e|---------------------------------|
B|---------------------------------|
G|---------------------------------|
D|---------------------------------|
A|--9-9-7----7/9--7----------------|
E|--------10-----------------------|

e|-------------------------------------------|
B|-------------------------------------------|
G|-------------------------------------------|
D|---------------7-7---7/9--7----------------|
A|----9-7----7-9-----9-----------------------|
E|--------10---------------------------------|

e|-------------------------------------------|
B|-------------------------------------------|
G|----9/11--9-9--9h11------------------------|
D|---------------------7h9p7-----5\4\2-------|
A|-------------------------------------------|
E|-------------------------------------------|

e|-----------------------------------------------------|

B|-----------------------------------------------------|

G|-----------------------------------------------------|

D|-----7-----------------------------------------------|

A|---7---10-9-7-7-7-------9-7-------4-4-5-4------------|

E|-------------------7-10-------------------7-5--------|

e|-----------------------------------------------------------------|
B|-----------------------------------------------------------------|
G|--7-6---6-7-----------------7-6---6-7----------------------------|
D|------9------7--7---------------9------7--7--9--7-9----7---------|
A|-------------------9--7-9----------------------------7---10-9-7--|
E|-----------------------------------------------------------------|

e|---------------------------------------------------------|
B|-----------------------------------------5/7-------------|
G|----------------------------------------------7-7/9------|
D|-------------5/7--------7------------7-------------------|
A|--7-7-------------9---7---10-9-7-7-----------------------|
E|-------7-10----------------------------------------------|

 


Pre-Chorus/Pre-Estribillo:

e|--------------10-12-12/14--------------------------|
B|-----10-12-14--------------------------------------|
G|--11-----------------------------------------------|
D|---------------------------------------------------|
A|---------------------------------------------------|
E|---------------------------------------------------|

e|--------------14-15-15/17---15-14----14------------------------------------------|
B|--------15-17---------------------17----17-15----14/16---------------------------|
G|--14-16---------------------------------------16------------------------9-9-9-9--|
D|-----------------------------------------------------------12---12/14------------|
A|---------------------------------------------------------------------------------|
E|---------------------------------------------------------------------------------|

e|-------------------------------------------------------------|
B|-------------------------------------------------------------|
G|--9-9-9-9-9-9-9--------9-9-9-9-9-9-9-9-9-9-9-----------------|
D|-----------------9-7--------------------------------7--------|
A|----------------------------------------------9-7-----10-9-7-|
E|-------------------------------------------------------------|

e|----------------12/14------------------------------------------|
B|---------------------------------------------------------------|
G|----------------------------9-9-9-9-9/11------9-9-9-9-9/11-----|
D|------7---7h9-----------------------------9-9---------------9--|
A|--9------------------------------------------------------------|
E|---------------------------------------------------------------|

 


Chorus/Estribillo:

GUITAR (Rhythm):

e|-----------------------------------------------------|
B|-----------------------------------------------------|
G|-----------------------------------------------------|
D|--9---9-#--5---5-5--5--5-5-7---7-#--2---2-2--2--2-2--|
A|--9---9-#--5---5-5--5--5-5-7---7-#--2---2-2--2--2-2--|
E|--7---7-#--3---3-3--3--3-3-5---5-#--0---0-0--0--0-0--|

GUITAR (Lead):

e|-----10-9--------|----------10-9---------------------------------------------------10-9--------|
B|----------12-10--|--12-----------12-10---------10----------------10---------------------12-10--|
G|--11-------------|-------11------------11---11----11-9----9---11----11-9--------11-------------|
D|-----------------|-------------------------------------12----------------12-9------------------|
A|-----------------|-----------------------------------------------------------------------------|
E|-----------------|-----------------------------------------------------------------------------|

BASS:

G|--------------------------------------------------------|
D|--------------------------------------------------------|
A|--2--2--2-----------------------------------------------|
E|--------------3--3--3--3--3--5--5--5-----0--0--0--0--0--|

GUITAR (Rhythm):

e|-----------------------------------------------------|
B|-----------------------------------------------------|
G|-----------------------------------------------------|
D|--9---9-#--5---5-5--5--5-5-7---7-#--2---2-2--2--2-2--|
A|--9---9-#--5---5-5--5--5-5-7---7-#--2---2-2--2--2-2--|
E|--7---7-#--3---3-3--3--3-3-5---5-#--0---0-0--0--0-0--|

GUITAR (Lead):

e|----------10-9---------------------------------------------------10-9--------|
B|--12-----------12-10---------10----------------10---------------------12-10--|
G|-------11------------11---11----11-9----9---11----11-9--------11-------------|
D|-------------------------------------12----------------12-9------------------|
A|-----------------------------------------------------------------------------|
E|-----------------------------------------------------------------------------|

BASS:

G|--------------------------------------------------------|
D|--------------------------------------------------------|
A|--2--2--2-----------------------------------------------|
E|--------------3--3--3--3--3--5--5--5-----0--0--0--0--0--|

GUITAR (Harmony):

e|------------12/14--12--12h14--10/9----------10--10--12--12/14--------|
B|----10--12---------------------------10-12---------------------------|
G|---------------------------------------------------------------------|
D|---------------------------------------------------------------------|
A|---------------------------------------------------------------------|
E|---------------------------------------------------------------------|

GUITAR (Rhythm):

e|-----------------------------------------------------|
B|-----------------------------------------------------|
G|-----------------------------------------------------|
D|--9---9-#--5---5-5--5--5-5-7---7-#--2---2-2--2--2-2--|
A|--9---9-#--5---5-5--5--5-5-7---7-#--2---2-2--2--2-2--|
E|--7---7-#--3---3-3--3--3-3-5---5-#--0---0-0--0--0-0--|

GUITAR (Lead):

e|----------10-9---------------------------------------------------10-9--------|
B|--12-----------12-10---------10----------------10---------------------12-10--|
G|-------11------------11---11----11-9----9---11----11-9--------11-------------|
D|-------------------------------------12----------------12-9------------------|
A|-----------------------------------------------------------------------------|
E|-----------------------------------------------------------------------------|

BASS:

G|--------------------------------------------------------|
D|--------------------------------------------------------|
A|--2--2--2-----------------------------------------------|
E|--------------3--3--3--3--3--5--5--5-----0--0--0--0--0--|

GUITAR (Vocals):

e|------------------------------|
B|------------------------------|
G|----------11-11-9----9/11--9--|
D|------------------12----------|
A|------------------------------|
E|------------------------------|

GUITAR (Harmony):

e|------------12/14--12--12h14--10/9-------|
B|----10--12---------------------------10--|
G|-----------------------------------------|
D|-----------------------------------------|
A|-----------------------------------------|
E|-----------------------------------------|

GUITAR (Lead):

e|----------10-9---------------------------|
B|--12-----------12-10---------10----------|
G|-------11------------11---11----11-9-----|
D|-------------------------------------12--|
A|-----------------------------------------|
E|-----------------------------------------|

GUITAR (Vocals):

e|--------------------------------------------------|
B|--------------------------------------------------|
G|--------------------------------------------------|
D|--#--#--#--#--#--#--#--#--#--#--#--#--#--#--#--#--|
A|--#--#--#--#--#--#--#--#--#--#--#--#--#--#--#--#--|
E|--#--#--#--#--#--#--#--#--#--#--#--#--#--#--#--#--|

GUITAR (Harmony):

e|---------------------10--10h12--------12/14--------|
B|--------------10/12--------------------------------|
G|---------------------------------------------------|
D|---------------------------------------------------|
A|---------------------------------------------------|
E|---------------------------------------------------|

GUITAR (Rhythm):

e|-----------------------------------------------------|
B|-----------------------------------------------------|
G|-----------------------------------------------------|
D|--9---9-#--5---5-5--5--5-5-7---7-#--2---2-2--2--2-2--|
A|--9---9-#--5---5-5--5--5-5-7---7-#--2---2-2--2--2-2--|
E|--7---7-#--3---3-3--3--3-3-5---5-#--0---0-0--0--0-0--|

GUITAR (Lead):

e|----------10-9---------------------------------------------------10-9--------|
B|--12-----------12-10---------10----------------10---------------------12-10--|
G|-------11------------11---11----11-9----9---11----11-9--------11-------------|
D|-------------------------------------12----------------12-9------------------|
A|-----------------------------------------------------------------------------|
E|-----------------------------------------------------------------------------|

BASS:

G|--------------------------------------------------------|
D|--------------------------------------------------------|
A|--2--2--2-----------------------------------------------|
E|--------------3--3--3--3--3--5--5--5-----0--0--0--0--0--|

GUITAR (Vocals):

e|----------------12/14------------------------------------------|
B|---------------------------------------------------------------|
G|----------------------------9-9-9-9-9/11------9-9-9-9-9/11-----|
D|------7---7h9-----------------------------9-9---------------9--|
A|--9------------------------------------------------------------|
E|---------------------------------------------------------------|

GUITAR (Rhythm):

e|---------------------------------------------------------|
B|---------------------------------------------------------|
G|---------------------------------------------------------|
D|--9---9-#--5---5-5--5--5-5-7--7--7--7-7------------------|
A|--9---9-#--5---5-5--5--5-5-7--7--7--7-7------------------|
E|--7---7-#--3---3-3--3--3-3-5--5--5--5-5------------------|

GUITAR (Lead):

e|----------10-9----------------------------------------------------|
B|--12-----------12-10---------10----------------10-----------------|
G|-------11------------11---11----11-9----9---11----11-9------------|
D|-------------------------------------12----------------12---------|
A|------------------------------------------------------------------|
E|------------------------------------------------------------------|

BASS:

G|-----------------------------------------------------------|
D|-----------------------------------------------------------|
A|--2--2--2--------------------------------------------------|
E|--------------3--3--3--3--3--5--5--5--5-5------------------|

 

Kaen - Tron544
00:00 / 00:00

©2019 by Fefe - Tron544

Sigueme en:

  • YouTube - White Circle
  • Facebook - White Circle
  • Instagram - White Circle
  • Twitter - White Circle
This site was designed with the
.com
website builder. Create your website today.
Start Now