~ JIYUU NO TSUBASA ~

TABLATURAS ~ By Fefe - Tron544

 

Intro:

 

GUITAR 2:

 

e|---------------------------------------------------------------------|

B|------------------8--8-----------------------------------------------|

G|---------7--9--9-------------7--9----9-h-10--9--7--------------------|

D|------9-----------------10-------------------------10--10---9--7--9--|

A|--10-----------------------------------------------------------------|

E|---------------------------------------------------------------------|

 

e|----------------------------------------------------------|

B|------------------8--8------------------------------------|

G|---------7--9--9-------------7--9----9-h-10--9--7---------|

D|------9-----------------10-------------------------10--7--|

A|--10------------------------------------------------------|

E|----------------------------------------------------------|

 

GUITAR 1:

 

e|---------------------------------------|

B|---------------------------------------|

G|---------------------------------------|

D|--7--x--x--x--x--7--x--x--x--x--7---5--|

A|--7--x--x--x--x--7--x--x--x--x--7---5--|

E|--5--x--x--x--x--5--x--x--x--x--5---3--|

 

GUITAR 2:

 

e|--17--0--17--0--17--0--20--0--22--0--20--0--17--0--20--0--|

B|----------------------------------------------------------|

G|----------------------------------------------------------|

D|----------------------------------------------------------|

A|----------------------------------------------------------|

E|----------------------------------------------------------|

 

GUITAR 1:

 

e|-----------------------------------------|

B|-----------------------------------------|

G|-----------------------------------------|

D|--7--x--x--x--x--7--x--x--x--x--7--x--x--|

A|--7--x--x--x--x--7--x--x--x--x--7--x--x--|

E|--5--x--x--x--x--5--x--x--x--x--5--x--x--|

 

GUITAR 2:

 

e|--22--0--20--0--17--0--20--0--22--0--20--0--17--0--20--0--|

B|----------------------------------------------------------|

G|----------------------------------------------------------|

D|----------------------------------------------------------|

A|----------------------------------------------------------|

E|----------------------------------------------------------|

 

GUITAR 1:

 

e|-----------------------------------------|

B|-----------------------------------------|

G|-----------------------------------------|

D|--7--x--x--x--x--7--x--x--x--x--7--x--x--|

A|--7--x--x--x--x--7--x--x--x--x--7--x--x--|

E|--5--x--x--x--x--5--x--x--x--x--5--x--x--|

 

GUITAR 2:

 

e|--17--0--17--0--17--0--20--0--22--0--20--0--17--0--20--0--|

B|----------------------------------------------------------|

G|----------------------------------------------------------|

D|----------------------------------------------------------|

A|----------------------------------------------------------|

E|----------------------------------------------------------|

 

GUITAR 1:

 

e|------------|

B|------------|

G|------------|

D|--3------5--|

A|--3------5--|

E|--1------3--|

 

GUITAR 2:

 

e|--22--0--20--0--17--0--20--0--22--0--20--0--17--0--20--0--|

B|----------------------------------------------------------|

G|----------------------------------------------------------|

D|----------------------------------------------------------|

A|----------------------------------------------------------|

E|----------------------------------------------------------|

 

GUITAR 1:

 

e|---------------------------------------|

B|---------------------------------------|

G|---------------------------------------|

D|--7--x--x--x--x--7--x--x--x--x--7---5--|

A|--7--x--x--x--x--7--x--x--x--x--7---5--|

E|--5--x--x--x--x--5--x--x--x--x--5---3--|

 

GUITAR 2:

 

e|--17--0--17--0--17--0--20--0--22--0--20--0--17--0--20--0--|

B|----------------------------------------------------------|

G|----------------------------------------------------------|

D|----------------------------------------------------------|

A|----------------------------------------------------------|

E|----------------------------------------------------------|

 

GUITAR 1:

 

e|-----------------------------------------|

B|-----------------------------------------|

G|-----------------------------------------|

D|--7--x--x--x--x--7--x--x--x--x--7--x--x--|

A|--7--x--x--x--x--7--x--x--x--x--7--x--x--|

E|--5--x--x--x--x--5--x--x--x--x--5--x--x--|

 

GUITAR 2:

 

e|--22--0--20--0--17--0--20--0--22--0--20--0--17--0--20--0--|

B|----------------------------------------------------------|

G|----------------------------------------------------------|

D|----------------------------------------------------------|

A|----------------------------------------------------------|

E|----------------------------------------------------------|

 

GUITAR 1:

 

e|-----------------------------------------|

B|-----------------------------------------|

G|-----------------------------------------|

D|--7--x--x--x--x--7--x--x--x--x--7--x--x--|

A|--7--x--x--x--x--7--x--x--x--x--7--x--x--|

E|--5--x--x--x--x--5--x--x--x--x--5--x--x--|

 

GUITAR 2:

 

e|--17--0--17--0--17--0--20--0--22--0--20--0--17--0--20--0--|

B|----------------------------------------------------------|

G|----------------------------------------------------------|

D|----------------------------------------------------------|

A|----------------------------------------------------------|

E|----------------------------------------------------------|

 

GUITAR 1:

 

e|------------|

B|--6------5--|

G|------------|

D|--3------2--|

A|------------|

E|------------|

 

GUITAR 2:

 

e|--22--0--20--0--17--0--20--0--22--0--20--0--17--0--20--0--|

B|----------------------------------------------------------|

G|----------------------------------------------------------|

D|----------------------------------------------------------|

A|----------------------------------------------------------|

E|----------------------------------------------------------|

 

GUITAR 1:

 

e|-----|

B|-----|

G|-----|

D|--7--|

A|--7--|

E|--5--|

 

GUITAR 2:

 

e|--17--0--17--0--17--0--20--0--22--0--20--0--17--|

B|------------------------------------------------|

G|------------------------------------------------|

D|------------------------------------------------|

A|------------------------------------------------|

E|------------------------------------------------|

 

 

Verse/Estrofa:

 

GUITAR 1:

 

  /~~~~~~~~REPEAT~x2~~/~~REPITE~x2~~~~~~~~\ /~~~~~~~~REPEAT~x2~~/~~REPITE~x2~~~~~~~~\

e|-----------------------------------------|-----------------------------------------|

B|-----------------------------------------|-----------------------------------------|

G|-----------------------------------------|-----------------------------------------|

D|--4--x--x--x--x--4--x--x--x--x--4--x--x--|--5--x--x--x--x--5--x--x--x--x--5--x--x--|

A|--4--x--x--x--x--4--x--x--x--x--4--x--x--|--5--x--x--x--x--5--x--x--x--x--5--x--x--|

E|--2--x--x--x--x--2--x--x--x--x--2--x--x--|--3--x--x--x--x--3--x--x--x--x--3--x--x--|

 

GUITAR 2:

 

e|----------------|---------------------------------|

B|----------------|---------------------------------|

G|-------11-------|--9------------------------------|

D|--11--------11--|------12--9-------9------11--12--|

A|----------------|--------------12-----------------|

E|----------------|---------------------------------|

 

GUITAR 3:

 

e|-----------2--------|-----------------------|

B|--------------------|-----------------------|

G|--4-b----------4-b--|--2-h-4------3-p-2-----|

D|--------------------|--------------------5--|

A|--------------------|-----------------------|

E|--------------------|-----------------------|

 

GUITAR 1:

 

  /~~~~~~~~REPEAT~x2~~/~~REPITE~x2~~~~~~~~\ /~~~~~~~~REPEAT~x2~~/~~REPITE~x2~~~~~~~~\

e|-----------------------------------------|-----------------------------------------|

B|-----------------------------------------|-----------------------------------------|

G|-----------------------------------------|-----------------------------------------|

D|--4--x--x--x--x--4--x--x--x--x--4--x--x--|--2--x--x--x--x--2--x--x--x--x--2--x--x--|

A|--4--x--x--x--x--4--x--x--x--x--4--x--x--|--2--x--x--x--x--2--x--x--x--x--2--x--x--|

E|--2--x--x--x--x--2--x--x--x--x--2--x--x--|--0--x--x--x--x--0--x--x--x--x--0--x--x--|

 

GUITAR 2:

 

e|-----------------------------------|-----------------------|

B|-----------------------------------|---------------9-------|

G|----------------------------9------|--9--------9-----------|

D|--11---------11--11--11--------12--|-------9-----------11--|

A|------9--9---------------9---------|-----------------------|

E|-----------------------------------|-----------------------|

 

GUITAR 3:

 

e|--------------9--|--12----10-p-9--------16---7-(H)-/W/---\W\--|

B|----------7------|----------------12--------------------------|

G|-------6---------|--------------------------------------------|

D|--4--------------|--------------------------------------------|

A|-----------------|--------------------------------------------|

E|-----------------|--------------------------------------------|

 

 

Pre-chorus/Pre-Estribillo:

 

GUITAR 1:

 

e|---------------------------------------|---------------------------------------|

B|---------------------------------------|---------------------------------------|

G|--6--6--6---7---4---6------------------|--6--6--6---7---4---6------------------|

D|--6--6--6---7---4---6---6---6---7---9--|--6--6--6---7---4---6---6---6---7---9--|

A|--4--4--4---5---2---4---6---6---7---9--|--4--4--4---5---2---4---6---6---7---9--|

E|------------------------4---4---5---7--|------------------------4---4---5---7--|

 

GUITAR 2:

 

e|----------------------------------------|----------------------------------------|

B|----------------------------------------|----------------------------------------|

G|----------------------------------------|----------------------------------------|

D|--11--11--11--12--9--11--------------9--|--11--11--11--12--9--11--------------9--|

A|-------------------------11--11--12-----|-------------------------11--11--12-----|

E|----------------------------------------|----------------------------------------|

 

 

Chorus/Estribillo:

 

GUITAR 1:

 

e|---------------------------------------------------------------------------------|

B|---------------------------------------------------------------------------------|

G|------------------------------------------7--x--x--x--x--7--x--x--x--x--7--x--x--|

D|--4--x--x--x--x--4--x--x--x--x--4--x--x---7--x--x--x--x--7--x--x--x--x--7--x--x--|

A|--4--x--x--x--x--4--x--x--x--x--4--x--x---5--x--x--x--x--5--x--x--x--x--5--x--x--|

E|--2--x--x--x--x--2--x--x--x--x--2--x--x------------------------------------------|

 

GUITAR 2:

 

e|-------------------------------|

B|------------10---9-------------|

G|-------11-----------11--9------|

D|--11-----------------------12--|

A|-------------------------------|

E|-------------------------------|

 

GUITAR 1:

 

e|---------------------------------------------------------------------------------|

B|---------------------------------------------------------------------------------|

G|---------------------------------------------------------------------------------|

D|--7--x--x--x--x--7--x--x--x--x--7--x--x---2--x--x--x--x--2--x--x--x--x--2--x--x--|

A|--7--x--x--x--x--7--x--x--x--x--7--x--x---2--x--x--x--x--2--x--x--x--x--2--x--x--|

E|--5--x--x--x--x--5--x--x--x--x--5--x--x---0--x--x--x--x--0--x--x--x--x--0--x--x--|

 

GUITAR 2:

 

e|---------------------------------------|

B|---------------------------------------|

G|--9------------------------------------|

D|-------11--12--11--11---9--9--------9--|

A|--------------------------------12-----|

E|---------------------------------------|

 

GUITAR 1:

 

e|---------------------------------------------------------------------------------|

B|---------------------------------------------------------------------------------|

G|------------------------------------------7--x--x--x--x--7--x--x--x--x--7--x--x--|

D|--4--x--x--x--x--4--x--x--x--x--4--x--x---7--x--x--x--x--7--x--x--x--x--7--x--x--|

A|--4--x--x--x--x--4--x--x--x--x--4--x--x---5--x--x--x--x--5--x--x--x--x--5--x--x--|

E|--2--x--x--x--x--2--x--x--x--x--2--x--x------------------------------------------|

 

GUITAR 2:

 

e|------------------------------------|

B|------------10---12--10--9----------|

G|-------11-------------------11--11--|

D|--11--------------------------------|

A|------------------------------------|

E|------------------------------------|

 

GUITAR 1:

 

e|-----------------------------------------------------------|

B|-----------------------------------------------------------|

G|------------------------------------------6--6--6---7---4--|

D|--7--x--x--x--x--7--x--x--x--x--7--x--x---6--6--6---7---4--|

A|--7--x--x--x--x--7--x--x--x--x--7--x--x---4--4--4---5---2--|

E|--5--x--x--x--x--5--x--x--x--x--5--x--x--------------------|

 

GUITAR 2:

 

e|--------------------|

B|--------------------|

G|--11--9-------------|

D|-----------------9--|

A|-------------12-----|

E|--------------------|

 

GUITAR 1:

 

e|---------------------------------------------------------------------------------|

B|---------------------------------------------------------------------------------|

G|------------------------------------------7--x--x--x--x--7--x--x--x--x--7--x--x--|

D|--4--x--x--x--x--4--x--x--x--x--4--x--x---7--x--x--x--x--7--x--x--x--x--7--x--x--|

A|--4--x--x--x--x--4--x--x--x--x--4--x--x---5--x--x--x--x--5--x--x--x--x--5--x--x--|

E|--2--x--x--x--x--2--x--x--x--x--2--x--x------------------------------------------|

 

GUITAR 2:

 

e|-------------------------------|

B|------------10---9-------------|

G|-------11-----------11--9------|

D|--11-----------------------12--|

A|-------------------------------|

E|-------------------------------|

 

GUITAR 1:

 

e|---------------------------------------------------------------------------------|

B|---------------------------------------------------------------------------------|

G|---------------------------------------------------------------------------------|

D|--7--x--x--x--x--7--x--x--x--x--7--x--x---2--x--x--x--x--2--x--x--x--x--2--x--x--|

A|--7--x--x--x--x--7--x--x--x--x--7--x--x---2--x--x--x--x--2--x--x--x--x--2--x--x--|

E|--5--x--x--x--x--5--x--x--x--x--5--x--x---0--x--x--x--x--0--x--x--x--x--0--x--x--|

 

GUITAR 2:

 

e|---------------------------------------|

B|---------------------------------------|

G|--9------------------------------------|

D|-------11--12--11--11---9--9--------9--|

A|--------------------------------12-----|

E|---------------------------------------|

 

GUITAR 1:

 

e|---------------------------------------------------------------------------------|

B|---------------------------------------------------------------------------------|

G|------------------------------------------7--x--x--x--x--7--x--x--x--x--7--x--x--|

D|--4--x--x--x--x--4--x--x--x--x--4--x--x---7--x--x--x--x--7--x--x--x--x--7--x--x--|

A|--4--x--x--x--x--4--x--x--x--x--4--x--x---5--x--x--x--x--5--x--x--x--x--5--x--x--|

E|--2--x--x--x--x--2--x--x--x--x--2--x--x------------------------------------------|

 

GUITAR 2:

 

e|------------------------------------|

B|------------10---12--10--9----------|

G|-------11-------------------11--11--|

D|--11--------------------------------|

A|------------------------------------|

E|------------------------------------|

 

GUITAR 1:

 

e|-----------------------------------------------------------|

B|-----------------------------------------------------------|

G|------------------------------------------6--6--6---7---4--|

D|--7--x--x--x--x--7--x--x--x--x--7--x--x---6--6--6---7---4--|

A|--7--x--x--x--x--7--x--x--x--x--7--x--x---4--4--4---5---2--|

E|--5--x--x--x--x--5--x--x--x--x--5--x--x--------------------|

 

GUITAR 2:

 

e|--------------------|

B|--------------------|

G|--11--9-------------|

D|-----------------9--|

A|-------------12-----|

E|--------------------|

 

GUITAR 1:

 

e|---------------------------------------------|

B|---------------------------------------------|

G|--7--x--x--x--x--7--x--x--x--x--7--x--x---9--|

D|--7--x--x--x--x--7--x--x--x--x--7--x--x---9--|

A|--5--x--x--x--x--5--x--x--x--x--5--x--x---7--|

E|---------------------------------------------|

 

GUITAR 2:

 

e|---------------------------------------------------|

B|----------------10--9----10--9------9--9-----------|

G|-----------11-------------------11---------11--11--|

D|--11--12-------------------------------------------|

A|---------------------------------------------------|

E|---------------------------------------------------|

 

 

Outro:

 

GUITAR 1:

 

e|---------------------------------------|

B|---------------------------------------|

G|---------------------------------------|

D|--4--x--x--x--x--4--x--x--x--x--4---2--|

A|--4--x--x--x--x--4--x--x--x--x--4---2--|

E|--2--x--x--x--x--2--x--x--x--x--2---0--|

 

GUITAR 2:

 

e|--14--0--14--0--14--0--17--0--19--0--17--0--14--0--17--0--|

B|----------------------------------------------------------|

G|----------------------------------------------------------|

D|----------------------------------------------------------|

A|----------------------------------------------------------|

E|----------------------------------------------------------|

 

GUITAR 1:

 

e|-----------------------------------------|

B|-----------------------------------------|

G|-----------------------------------------|

D|--4--x--x--x--x--4--x--x--x--x--4--x--x--|

A|--4--x--x--x--x--4--x--x--x--x--4--x--x--|

E|--2--x--x--x--x--2--x--x--x--x--2--x--x--|

 

GUITAR 2:

 

e|--19--0--17--0--14--0--17--0--19--0--17--0--14--0--17--0--|

B|----------------------------------------------------------|

G|----------------------------------------------------------|

D|----------------------------------------------------------|

A|----------------------------------------------------------|

E|----------------------------------------------------------|

 

GUITAR 1:

 

e|-----------------------------------------|

B|-----------------------------------------|

G|-----------------------------------------|

D|--4--x--x--x--x--4--x--x--x--x--4--x--x--|

A|--4--x--x--x--x--4--x--x--x--x--4--x--x--|

E|--2--x--x--x--x--2--x--x--x--x--2--x--x--|

 

GUITAR 2:

 

e|--14--0--14--0--14--0--17--0--19--0--17--0--14--0--17--0--|

B|----------------------------------------------------------|

G|----------------------------------------------------------|

D|----------------------------------------------------------|

A|----------------------------------------------------------|

E|----------------------------------------------------------|

 

GUITAR 1:

 

e|------------|

B|------------|

G|--7------9--|

D|--7------9--|

A|--5------7--|

E|------------|

 

GUITAR 2:

 

e|--19--0--17--0--14--0--17--0--19--0--17--0--14--0--17--0--|

B|----------------------------------------------------------|

G|----------------------------------------------------------|

D|----------------------------------------------------------|

A|----------------------------------------------------------|

E|----------------------------------------------------------|

 

GUITAR 1:

 

e|---------------------------------------|

B|---------------------------------------|

G|---------------------------------------|

D|--7--x--x--x--x--7--x--x--x--x--7---5--|

A|--7--x--x--x--x--7--x--x--x--x--7---5--|

E|--5--x--x--x--x--5--x--x--x--x--5---3--|

 

GUITAR 2:

 

e|--17--0--17--0--17--0--20--0--22--0--20--0--17--0--20--0--|

B|----------------------------------------------------------|

G|----------------------------------------------------------|

D|----------------------------------------------------------|

A|----------------------------------------------------------|

E|----------------------------------------------------------|

 

GUITAR 1:

 

e|-----------------------------------------|

B|-----------------------------------------|

G|-----------------------------------------|

D|--7--x--x--x--x--7--x--x--x--x--7--x--x--|

A|--7--x--x--x--x--7--x--x--x--x--7--x--x--|

E|--5--x--x--x--x--5--x--x--x--x--5--x--x--|

 

GUITAR 2:

 

e|--22--0--20--0--17--0--20--0--22--0--20--0--17--0--20--0--|

B|----------------------------------------------------------|

G|----------------------------------------------------------|

D|----------------------------------------------------------|

A|----------------------------------------------------------|

E|----------------------------------------------------------|

 

GUITAR 1:

 

e|-----------------------------------------|

B|-----------------------------------------|

G|-----------------------------------------|

D|--7--x--x--x--x--7--x--x--x--x--7--x--x--|

A|--7--x--x--x--x--7--x--x--x--x--7--x--x--|

E|--5--x--x--x--x--5--x--x--x--x--5--x--x--|

 

GUITAR 2:

 

e|--17--0--17--0--17--0--20--0--22--0--20--0--17--0--20--0--|

B|----------------------------------------------------------|

G|----------------------------------------------------------|

D|----------------------------------------------------------|

A|----------------------------------------------------------|

E|----------------------------------------------------------|

 

GUITAR 1:

 

e|------------|-----------------------|

B|--6------5--|-----------------------|

G|------------|-----------------------|

D|--3------2--|--7--7--7---8---5---7--|

A|------------|--7--7--7---8---5---7--|

E|------------|--5--5--5---6---3---5--|

 

GUITAR 2:

 

e|--22--0--20--0--17--0--20--0--22--0--20--0--17--0--20--0--|--------------------------|

B|----------------------------------------------------------|--------------------------|

G|----------------------------------------------------------|--14--14--14--15--12--14--|

D|----------------------------------------------------------|--------------------------|

A|----------------------------------------------------------|--------------------------|

E|----------------------------------------------------------|--------------------------|

 

 

Jiyuu no Tsubasa - Tron544
00:00 / 00:00

©2019 by Fefe - Tron544

Sigueme en:

  • YouTube - White Circle
  • Facebook - White Circle
  • Instagram - White Circle
  • Twitter - White Circle
This site was designed with the
.com
website builder. Create your website today.
Start Now