JIBUN ROCK

ONE OK ROCK

TABS ~ By Fefe (Tron544)
 

Intro:

e|-----|-------6---8-------6---8-----------------------------------|
B|-----|-------6---8-------6---8-----------------------------------|
G|-----|--------------5-5------------------------------------------|
D|--3--|--5-5---------5-5---------1-1-1-1-1-1-1-1-3-3-3-3-0-0-3-3--|
A|--3--|--5-5---------3-3---------1-1-1-1-1-1-1-1-3-3-3-3-0-0-3-3--|
D|--3--|--5-5---------------------1-1-1-1-1-1-1-1-3-3-3-3-0-0-3-3--|

e|-------6---8-------6---8--------------------------------|
B|-------6---8-------6---8--------------------------------|
G|--------------5-5---------------------------------------|
D|--5-5---------5-5---------1-1-1-1-1-1-1-1-3-3-3-3-0--3--|
A|--5-5---------3-3---------1-1-1-1-1-1-1-1-3-3-3-3-0--3--|
D|--5-5---------------------1-1-1-1-1-1-1-1-3-3-3-3-0--3--|

e|-----------------------------------------------|
B|-----------------------------------------------|
G|--7--3--5-----3-------3--7--3--5-----2----7----|
D|-----------5-------5--------------3------------|
A|-----------------------------------------------|
D|-----------------------------------------------|

e|----------------------------------------------|
B|----------------------------------------------|
G|--7--3--5-----3-------3--7--3--5--8--7--------|
D|-----------5-------5--------------------------|
A|----------------------------------------------|
D|----------------------------------------------|


First Verse/Primer Estrofa:

e|-----|-------6---8-------6---8-----------------------------------|
B|-----|-------6---8-------6---8-----------------------------------|
G|-----|--------------5-5------------------------------------------|
D|--3--|--5-5---------5-5---------1-1-1-1-1-1-1-1-3-3-3-3-0-0-3-3--|
A|--3--|--5-5---------3-3---------1-1-1-1-1-1-1-1-3-3-3-3-0-0-3-3--|
D|--3--|--5-5---------------------1-1-1-1-1-1-1-1-3-3-3-3-0-0-3-3--|

e|-------6---8-------6---8--------------------------------|
B|-------6---8-------6---8--------------------------------|
G|--------------5-5---------------------------------------|
D|--5-5---------5-5---------1-1-1-1-1-1-1-1-3-3-3-3-0--3--|
A|--5-5---------3-3---------1-1-1-1-1-1-1-1-3-3-3-3-0--3--|
D|--5-5---------------------1-1-1-1-1-1-1-1-3-3-3-3-0--3--|

 


Pre-Chorus/Pre-Estribillo:

e|--------------------------------------------------|
B|--8--6--------------------8--6--------------------|
G|-------7--5--7-------3---------7--5--7-------3----|
D|----------------3-5---------------------3-5-------|
A|--------------------------------------------------|
D|--------------------------------------------------|

e|-------------------------------------------------------------|
B|--8--6-------------------------------------------------------|
G|-------7--5--7-------3----3----------------------------------|
D|----------------3-5----------3-5--5-3-3-5-5-3-3-----4--------|
A|------------------------------------------------5-5-4--------|
D|----------------------------------------------------4--------|


Chorus/Estribillo:

e|-------------------------------------------------------------------|
B|-------------------------------------------------------------------|
G|-------------------------------------------------------------------|
D|--5-5-5-5-5-5-5-5-7-7-7-7-7-7-7-7-8-8-8-8-8-8-8-8-0-0-0-0-0-0-0-0--|
A|--5-5-5-5-5-5-5-5-8-8-8-8-8-8-8-8-8-8-8-8-8-8-8-8-0-0-0-0-0-0-0-0--|
D|--5-5-5-5-5-5-5-5-7-7-7-7-7-7-7-7-8-8-8-8-8-8-8-8-0-0-0-0-0-0-0-0--|

e|-------------------------------------------------------------------|
B|-------------------------------------------------------------------|
G|-------------------------------------------------------------------|
D|--1-1-1-1-1-1-1-1-0-0-0-0-0-0-0-0-4-4-4-4-4-4-4-4-5-5-5-5-5-5-5-5--|
A|--1-1-1-1-1-1-1-1-0-0-0-0-0-0-0-0-5-5-5-5-5-5-5-5-5-5-5-5-5-5-5-5--|
D|--1-1-1-1-1-1-1-1-0-0-0-0-0-0-0-0-4-4-4-4-4-4-4-4-5-5-5-5-5-5-5-5--|

e|-----------------------------------------------------------|
B|-----------------------------------------------------------|
G|-----------------------------------------------------------|
D|--1--1-1--1-1-1-3--3-3--3-3-3-5--5-5--5-5-5-0--0-0--0-0-0--|
A|--1--1-1--1-1-1-3--3-3--3-3-3-5--5-5--5-5-5-0--0-0--0-0-0--|
D|--1--1-1--1-1-1-3--3-3--3-3-3-5--5-5--5-5-5-0--0-0--0-0-0--|

e|---------------------------------------------------------------------|
B|---------------------------------------------------------------------|
G|---------------------------------------------------------------------|
D|--1-x-x-1-x-x-1-x-x-1-x-x-1-x-1-x-3-x-x-3-x-x-3-x-x-3(1)x-x-x-x---3--|
A|--1-x-x-1-x-x-1-x-x-1-x-x-1-x-1-x-3-x-x-3-x-x-3-x-x-3(1)x-x-x-x---3--|
D|--1-x-x-1-x-x-1-x-x-1-x-x-1-x-1-x-3-x-x-3-x-x-3-x-x-3(1)x-x-x-x---3--|


Re-Intro:

e|-------6---8-------6---8-----------------------------------|
B|-------6---8-------6---8-----------------------------------|
G|--------------5-5------------------------------------------|
D|--5-5---------5-5---------1-1-1-1-1-1-1-1-3-3-3-3-0-0-3-3--|
A|--5-5---------3-3---------1-1-1-1-1-1-1-1-3-3-3-3-0-0-3-3--|
D|--5-5---------------------1-1-1-1-1-1-1-1-3-3-3-3-0-0-3-3--|

e|-------6---8-------6---8--------------------------------|
B|-------6---8-------6---8--------------------------------|
G|--------------5-5---------------------------------------|
D|--5-5---------5-5---------1-1-1-1-1-1-1-1-3-3-3-3-0--3--|
A|--5-5---------3-3---------1-1-1-1-1-1-1-1-3-3-3-3-0--3--|
D|--5-5---------------------1-1-1-1-1-1-1-1-3-3-3-3-0--3--|

Jibun ROCK - Tron544
00:00 / 00:00
DONATE%20BUTTON%20(EN)_edited.png

Second Verse/Segunda Estrofa:

e|-------6---8-------6---8-----------------------------------|
B|-------6---8-------6---8-----------------------------------|
G|--------------5-5------------------------------------------|
D|--5-5---------5-5---------1-1-1-1-1-1-1-1-3-3-3-3-0-0-3-3--|
A|--5-5---------3-3---------1-1-1-1-1-1-1-1-3-3-3-3-0-0-3-3--|
D|--5-5---------------------1-1-1-1-1-1-1-1-3-3-3-3-0-0-3-3--|

e|-------6---8------------------------------------------|
B|-------6---8------------------------------------------|
G|--------------5-5-------------------------------------|
D|--5-5---------5-5-------1-1-1-1-1-1-1-1-3-3-3-3-0--3--|
A|--5-5---------3-3-------1-1-1-1-1-1-1-1-3-3-3-3-0--3--|
D|--5-5-------------------1-1-1-1-1-1-1-1-3-3-3-3-0--3--|


Pre-Chorus/Pre-Estribillo:

e|--------------------------------------------------|
B|--8--6--------------------8--6--------------------|
G|-------7--5--7-------3---------7--5--7-------3----|
D|----------------3-5---------------------3-5-------|
A|--------------------------------------------------|
D|--------------------------------------------------|

e|-------------------------------------------------------------|
B|--8--6-------------------------------------------------------|
G|-------7--5--7-------3----3----------------------------------|
D|----------------3-5----------3-5--5-3-3-5-5-3-3-----4--------|
A|------------------------------------------------5-5-4--------|
D|----------------------------------------------------4--------|


Chorus/Estribillo:

e|-------------------------------------------------------------------|
B|-------------------------------------------------------------------|
G|-------------------------------------------------------------------|
D|--5-5-5-5-5-5-5-5-7-7-7-7-7-7-7-7-8-8-8-8-8-8-8-8-0-0-0-0-0-0-0-0--|
A|--5-5-5-5-5-5-5-5-8-8-8-8-8-8-8-8-8-8-8-8-8-8-8-8-0-0-0-0-0-0-0-0--|
D|--5-5-5-5-5-5-5-5-7-7-7-7-7-7-7-7-8-8-8-8-8-8-8-8-0-0-0-0-0-0-0-0--|

e|-------------------------------------------------------------------|
B|-------------------------------------------------------------------|
G|-------------------------------------------------------------------|
D|--1-1-1-1-1-1-1-1-0-0-0-0-0-0-0-0-4-4-4-4-4-4-4-4-5-5-5-5-5-5-5-5--|
A|--1-1-1-1-1-1-1-1-0-0-0-0-0-0-0-0-5-5-5-5-5-5-5-5-5-5-5-5-5-5-5-5--|
D|--1-1-1-1-1-1-1-1-0-0-0-0-0-0-0-0-4-4-4-4-4-4-4-4-5-5-5-5-5-5-5-5--|

e|-----------------------------------------------------------|
B|-----------------------------------------------------------|
G|-----------------------------------------------------------|
D|--1--1-1--1-1-1-3--3-3--3-3-3-5--5-5--5-5-5-0--0-0--0-0-0--|
A|--1--1-1--1-1-1-3--3-3--3-3-3-5--5-5--5-5-5-0--0-0--0-0-0--|
D|--1--1-1--1-1-1-3--3-3--3-3-3-5--5-5--5-5-5-0--0-0--0-0-0--|

e|---------------------------------------------------------------------|
B|---------------------------------------------------------------------|
G|---------------------------------------------------------------------|
D|--1-x-x-1-x-x-1-x-x-1-x-x-1-x-1-x-3-x-x-3-x-x-3-x-x-3(1)x-x-x-x---3--|
A|--1-x-x-1-x-x-1-x-x-1-x-x-1-x-1-x-3-x-x-3-x-x-3-x-x-3(1)x-x-x-x---3--|
D|--1-x-x-1-x-x-1-x-x-1-x-x-1-x-1-x-3-x-x-3-x-x-3-x-x-3(1)x-x-x-x---3--|

 


Bridge/Puente:

e|-----------------------------------------------------------|
B|-----------------------------------------------------------|
G|--------5---------------------------5----------------------|
D|--5-3-5-5-------------------3-5-3-5-5-------------------3--|
A|--5-3-5-3-------------------3-5-3-5-3-------------------3--|
D|--5-3-5---------------------3-5-3-5---------------------3--|

e|--------------------------------------------|
B|--------------------------------------------|
G|--------5-----------------------------------|
D|--5-3-5-5--------------------3-0-1-3-4-5----|
A|--5-3-5-3--------------------3-0-1-3-4-5----|
D|--5-3-5----------------------3-0-1-3-4-5----|

e|-----------------------------------------------------------------------------|
B|-----------------------------------------------------------------------------|
G|--7------------9----11--------7--------7------------9----11--------14--------|
D|-----------------------------------------------------------------------------|
A|--5------------7----9---------5--------5------------7----9---------12--------|
D|-----------------------------------------------------------------------------|

e|---------------------------------------------------------------------|
B|---------------------------------------------------------------------|
G|-------7-----6-----7-----6-----7-6------7-----6-----7-----6-----7-6--|
D|--(7)x-7-x-x-7-x-x-7-x-x-7-x-x-7-7-(7)x-7-x-x-7-x-x-7-x-x-7-x-x-7-7--|
A|--(0)x-0-x-x-0-x-x-0-x-x-0-x-x-0-0-(5)x-5-x-x-5-x-x-5-x-x-5-x-x-5-5--|
D|--(0)x-0-x-x-0-x-x-0-x-x-0-x-x-0-0-(5)x-5-x-x-5-x-x-5-x-x-5-x-x-5-5--|

e|--------------------------------------------------------------------------------------|
B|--------------------------------------------------------------------------------------|
G|--------------------------------------------------------------------------------------|
D|--(3)x-3-x-x-3-x-3-(1)x-1-x-x-1-x-x-(0)x-x-x-x-x-x-x-x-x-x-x-x-x-x-x-0----------------|
A|--(3)x-3-x-x-3-x-3-(1)x-1-x-x-1-x-x-(0)x-x-x-x-x-x-x-x-x-x-x-x-x-x-x-0----------------|
D|--(3)x-3-x-x-3-x-3-(1)x-1-x-x-1-x-x-(0)x-x-x-x-x-x-x-x-x-x-x-x-x-x-x-0----------------|


Chorus/Estribillo:

e|-------------------------------------------------------------------|
B|-------------------------------------------------------------------|
G|-------------------------------------------------------------------|
D|--5-5-5-5-5-5-5-5-7-7-7-7-7-7-7-7-8-8-8-8-8-8-8-8-0-0-0-0-0-0-0-0--|
A|--5-5-5-5-5-5-5-5-8-8-8-8-8-8-8-8-8-8-8-8-8-8-8-8-0-0-0-0-0-0-0-0--|
D|--5-5-5-5-5-5-5-5-7-7-7-7-7-7-7-7-8-8-8-8-8-8-8-8-0-0-0-0-0-0-0-0--|

e|-------------------------------------------------------------------|
B|-------------------------------------------------------------------|
G|-------------------------------------------------------------------|
D|--1-1-1-1-1-1-1-1-0-0-0-0-0-0-0-0-4-4-4-4-4-4-4-4-5-5-5-5-5-5-5-5--|
A|--1-1-1-1-1-1-1-1-0-0-0-0-0-0-0-0-5-5-5-5-5-5-5-5-5-5-5-5-5-5-5-5--|
D|--1-1-1-1-1-1-1-1-0-0-0-0-0-0-0-0-4-4-4-4-4-4-4-4-5-5-5-5-5-5-5-5--|

e|-----------------------------------------------------------|
B|-----------------------------------------------------------|
G|-----------------------------------------------------------|
D|--1--1-1--1-1-1-3--3-3--3-3-3-5--5-5--5-5-5-0--0-0--0-0-0--|
A|--1--1-1--1-1-1-3--3-3--3-3-3-5--5-5--5-5-5-0--0-0--0-0-0--|
D|--1--1-1--1-1-1-3--3-3--3-3-3-5--5-5--5-5-5-0--0-0--0-0-0--|

e|---------------------------------------------------------------------|
B|---------------------------------------------------------------------|
G|---------------------------------------------------------------------|
D|--1-x-x-1-x-x-1-x-x-1-x-x-1-x-1-x-3-x-3-x-3-x-3-x-3-x(1)x-x-x-x---3--|
A|--1-x-x-1-x-x-1-x-x-1-x-x-1-x-1-x-3-x-3-x-3-x-3-x-3-x(1)x-x-x-x---3--|
D|--1-x-x-1-x-x-1-x-x-1-x-x-1-x-1-x-3-x-3-x-3-x-3-x-3-x(1)x-x-x-x---3--|


Outro:

e|-------6---8-------6---8-----------------------------------|
B|-------6---8-------6---8-----------------------------------|
G|--------------5-5------------------------------------------|
D|--5-5---------5-5---------1-1-1-1-1-1-1-1-3-3-3-3-0-0-3-3--|
A|--5-5---------3-3---------1-1-1-1-1-1-1-1-3-3-3-3-0-0-3-3--|
D|--5-5---------------------1-1-1-1-1-1-1-1-3-3-3-3-0-0-3-3--|

e|-------6---8-------6---8-----------------------------------|
B|-------6---8-------6---8-----------------------------------|
G|--------------5-5------------------------------------------|
D|--5-5---------5-5---------1-1-1-1-1-1-1-1-3-3-3-3-0-----3--|
A|--5-5---------3-3---------1-1-1-1-1-1-1-1-3-3-3-3-0-----3--|
D|--5-5---------------------1-1-1-1-1-1-1-1-3-3-3-3-0-----3--|

e|----------------------------------------------------------|
B|----------------------------------------------------------|
G|--------5---------------------------5---------------------|
D|--5-3-5-5-------------------3-5-3-5-5---------------------|
A|--5-3-5-3-------------------3-5-3-5-3---------------------|
D|--5-3-5---------------------3-5-3-5-----------------------|

©2015 by Fefe - Tron544

Sigueme en:

  • YouTube - White Circle
  • Facebook - White Circle
  • Instagram - White Circle
  • Twitter - White Circle
This site was designed with the
.com
website builder. Create your website today.
Start Now