DON'T MAKE ME WILD LIKE YOU

RANMA 1/2

TABS ~ By Fefe (Tron544)

 

Intro:

 

  /~~~~~~~~~~~~~~~~~~~~~( REPEAT x2 / REPITE x2 )~~~~~~~~~~~~~~~~~~~~~\
e|---------------------------------------------------------------------|
B|-----8--8-----8--8--10-b--10--8------8--8-----8--8-------------------|
G|--9--------9----------------------9--------9--------7--9--7----------|
D|-------------------------------------------------------------10--10--|
A|---------------------------------------------------------------------|
E|---------------------------------------------------------------------|

 

e|-----------------------------------------------------------------|
B|-----------------------------------------------------------------|
G|----------9---7--9--7------9-----------9--9--9--7--9--7----------|
D|--10--10---------------10------10--10--------------------10--10--|
A|-----------------------------------------------------------------|
E|-----------------------------------------------------------------|

 

e|------------------------------------------------------------------|
B|------------------------------------------------------------------|
G|----------9---7--9--7------9-----------9--9--9-----------9--9--9--|
D|--10--10---------------10------10--10------------10--10-----------|
A|------------------------------------------------------------------|
E|------------------------------------------------------------------|

 

e|------------------------------------------------------------------------------------|
B|------------------------------------------------------------------------------------|
G|----------9--9--9--7--9--7----------------------------------------------------------|
D|--10--10--------------------10--10---10--9--8--7---7--7--7---10--9--8--7---7--7--7--|
A|------------------------------------------------------------------------------------|
E|------------------------------------------------------------------------------------|

 


Verse/Estrofa:

 

e|-------------------------------------------------------------------|
B|----------------------------------------------------------------8--|
G|--7--7------7--7---9--9--7-------7--7------7--7---9--9--10--10-----|
D|--------10------------------10---------10--------------------------|
A|-------------------------------------------------------------------|
E|-------------------------------------------------------------------|

 

e|-----------------------------------------------------------|
B|-----------------------------------------------------8--8--|
G|--7--7------7--7---9--9--7-------7--7------7--7---9--------|
D|--------10------------------10---------10------------------|
A|-----------------------------------------------------------|
E|-----------------------------------------------------------|

Jaja Uma ni Sasenaide - Tron544
00:00 / 00:00
DONATE%20BUTTON%20(EN)_edited.png

Pre-Chorus/Pre-Estribillo:

 

e|--------------------------------------------------------|
B|----------8--------------------------8--8-----10--8-----|
G|--10--10-----9--9--9--9--9---10--10--------9---------9--|
D|--------------------------------------------------------|
A|--------------------------------------------------------|
E|--------------------------------------------------------|

 

e|----------------------------------------------------------------|
B|----------8-----------------------------------------------------|
G|--10--10-----9--9--9--9--9---10--10--10--10--9--9--7--6--6-h-7--|
D|----------------------------------------------------------------|
A|----------------------------------------------------------------|
E|----------------------------------------------------------------|

 

e|---------------------------------------------------------------------------------------------|
B|---------------------7-----------------------------------------------------------------------|
G|--10--10--10--10--9-----10--9-------10--10--9------7---------------10--10--9------7----------|
D|--------------------------------10-------------10-----10--10---10-------------10-----10--10--|
A|---------------------------------------------------------------------------------------------|
E|---------------------------------------------------------------------------------------------|

 


Chorus/Estribillo:

 

e|-----------------------------------------------------------------|
B|-----------------------------------------------------------------|
G|----------9---7--9--7------9-----------9--9--9--7--9--7----------|
D|--10--10---------------10------10--10--------------------10--10--|
A|-----------------------------------------------------------------|
E|-----------------------------------------------------------------|

 

e|------------------------------------------------------------------|
B|------------------------------------------------------------------|
G|----------9---7--9--7------9-----------9--9--9-----------9--9--9--|
D|--10--10---------------10------10--10------------10--10-----------|
A|------------------------------------------------------------------|
E|------------------------------------------------------------------|

 

e|------------------------------------------------------------------------------------|
B|------------------------------------------------------------------------------------|
G|----------9--9--9--7--9--7----------------------------------------------------------|
D|--10--10--------------------10--10---10--9--8--7---7--7--7---10--9--8--7---7--7--7--|
A|------------------------------------------------------------------------------------|
E|------------------------------------------------------------------------------------|

©2015 by Fefe - Tron544

Sigueme en:

  • YouTube - White Circle
  • Facebook - White Circle
  • Instagram - White Circle
  • Twitter - White Circle
This site was designed with the
.com
website builder. Create your website today.
Start Now