ITTEKI NO EIKYOU

AO NO EXORCIST: KYOTO SAGA

TABS ~ By Fefe (Tron544)

 

Intro:

 

GUITAR (Lead):

 

e|--------------------------------------------------------------------|
B|--6-6-6-6-6-6-6-6-6-6-6-6-6-6-6-6--8-8-8-8-8-8-8-8-8-8-8-8-8-8-8-8--|
G|--------------------------------------------------------------------|
D|--3-3-3-3-3-3-3-3-3-3-3-3-3-3-3-3--5-5-5-5-5-5-5-5-5-5-5-5-5-5-5-5--|
A|--------------------------------------------------------------------|
E|--------------------------------------------------------------------|

 

GUITAR (Vocals):

 

e|-------------------------------|
B|--10--11--13-------------------|
G|--------------10-/-12------12--|
D|-------------------------------|
A|-------------------------------|
E|-------------------------------|

 

GUITAR (Harmony):

 

e|--------5------------|
B|--6--8-----5------5--|
G|---------------------|
D|---------------------|
A|---------------------|
E|---------------------|

 

GUITAR (Lead):

 

e|------------------------------------------------------------------------------------|
B|--5-5-5-5-5-5-5-5-5-5-5-5-5-5-5-5--10-10-10-10-10-10-10-10-10-10-10-10-10-10-10-10--|
G|------------------------------------------------------------------------------------|
D|--2-2-2-2-2-2-2-2-2-2-2-2-2-2-2-2--7--7--7--7--7--7--7--7--7--7--7--7--7--7--7--7---|
A|------------------------------------------------------------------------------------|
E|------------------------------------------------------------------------------------|

 

GUITAR (Vocals):

 

e|----------------------------|
B|---------10-/-11---11-\-10--|
G|--12--9---------------------|
D|----------------------------|
A|----------------------------|
E|----------------------------|

 

GUITAR (Harmony):

 

e|-----------------------|
B|--5-----6-/-8---8-\-6--|
G|-----5-----------------|
D|-----------------------|
A|-----------------------|
E|-----------------------|

 

GUITAR (Lead):

 

e|--------------------------------------------------------------------|
B|--6-6-6-6-6-6-6-6-6-6-6-6-6-6-6-6--8-8-8-8-8-8-8-8-8-8-8-8-8-8-8-8--|
G|--------------------------------------------------------------------|
D|--3-3-3-3-3-3-3-3-3-3-3-3-3-3-3-3--5-5-5-5-5-5-5-5-5-5-5-5-5-5-5-5--|
A|--------------------------------------------------------------------|
E|--------------------------------------------------------------------|

 

GUITAR (Vocals):

 

e|-----------------------------------|
B|--10--11--13-----------------------|
G|--------------10-/-12------12--12--|
D|-----------------------------------|
A|-----------------------------------|
E|-----------------------------------|

 

GUITAR (Harmony):

 

e|--------5---------------|
B|--6--8-----5------5--5--|
G|------------------------|
D|------------------------|
A|------------------------|
E|------------------------|

 

GUITAR (Lead):

 

e|----------------------------------------------------------------------------------------------------|
B|--10-10-10-10-10-10-10-10-10-10-10-10-10-10-10-10--10-10-10-10-10-10-10-10-10-10-10-10-10-10-10-10--|
G|----------------------------------------------------------------------------------------------------|
D|--7--7--7--7--7--7--7--7--7--7--7--7--7--7--7--7---7--7--7--7--7--7--7--7--7--7--7--7--7--7--7--7---|
A|----------------------------------------------------------------------------------------------------|
E|----------------------------------------------------------------------------------------------------|

 

GUITAR (Vocals):

 

e|------------------------------------------|
B|---------10-/-11---11-\-10----10--10--10--|
G|--12--9-----------------------------------|
D|------------------------------------------|
A|------------------------------------------|
E|------------------------------------------|

 

GUITAR (Harmony):

 

e|------------------------------|
B|--5-----5---5-\-6----6--6--6--|
G|-----5------------------------|
D|------------------------------|
A|------------------------------|
E|------------------------------|

 

GUITAR (Lead):

 

e|--------------------------------------------------------------------|
B|--6-6-6-6-6-6-6-6-6-6-6-6-6-6-6-6--8-8-8-8-8-8-8-8-8-8-8-8-8-8-8-8--|
G|--------------------------------------------------------------------|
D|--3-3-3-3-3-3-3-3-3-3-3-3-3-3-3-3--5-5-5-5-5-5-5-5-5-5-5-5-5-5-5-5--|
A|--------------------------------------------------------------------|
E|--------------------------------------------------------------------|

 

GUITAR (Vocals):

 

e|-----------------------------------------|
B|--10---11--10-----------13---------------|
G|----------------12--12-------12--12--12--|
D|-----------------------------------------|
A|-----------------------------------------|
E|-----------------------------------------|

 

GUITAR (Harmony):

 

e|---------------------------------|
B|--6---8--5---5--5--5----5--5--5--|
G|---------------------------------|
D|---------------------------------|
A|---------------------------------|
E|---------------------------------|

 

GUITAR (Lead):

 

e|------------------------------------------------------------------------------------|
B|--5-5-5-5-5-5-5-5-5-5-5-5-5-5-5-5--10-10-10-10-10-10-10-10-10-10-10-10-10-10-10-10--|
G|------------------------------------------------------------------------------------|
D|--2-2-2-2-2-2-2-2-2-2-2-2-2-2-2-2--7--7--7--7--7--7--7--7--7--7--7--7--7--7--7--7---|
A|------------------------------------------------------------------------------------|
E|------------------------------------------------------------------------------------|

 

GUITAR (Vocals):

 

e|------------------------------------------|
B|-----------10---10--11---10---10--10--11--|
G|--12---9----------------------------------|
D|------------------------------------------|
A|------------------------------------------|
E|------------------------------------------|

 

GUITAR (Harmony):

 

e|------------------------|
B|--5-------6---6--8---6--|
G|------5-----------------|
D|------------------------|
A|------------------------|
E|------------------------|

 

GUITAR (Lead):

 

e|--------------------------------------------------------------------|
B|--6-6-6-6-6-6-6-6-6-6-6-6-6-6-6-6--8-8-8-8-8-8-8-8-8-8-8-8-8-8-8-8--|
G|--------------------------------------------------------------------|
D|--3-3-3-3-3-3-3-3-3-3-3-3-3-3-3-3--5-5-5-5-5-5-5-5-5-5-5-5-5-5-5-5--|
A|--------------------------------------------------------------------|
E|--------------------------------------------------------------------|

 

GUITAR (Vocals):

 

e|--------------------------------------|
B|--13------------10--10----------------|
G|-------10---10----------12----12--10--|
D|--------------------------------------|
A|--------------------------------------|
E|--------------------------------------|

 

GUITAR (Harmony):

 

e|--6--5--|
B|--------|
G|--------|
D|--------|
A|--------|
E|--------|

 

GUITAR (Rhythm):

 

e|---------------------------------------------|
B|---------------------------------------------|
G|--7---6---5---2--------------5--5---5--5--5--|
D|--7---6---5---2---5---5--5---5--5---5--5--5--|
A|--5---4---3---0---5---5--5---3--3---3--3--3--|
E|------------------3---3--3-------------------|

 

GUITAR (Lead):

 

e|--------------------------------------------------------------------------------------------|
B|--------------------------------------------------------------------------------------------|
G|--7--7--7--7---9--9--9--9---10--10--10--10---14--14--14--14---12---12--12---9--9---9--9--9--|
D|--------------------------------------------------------------------------------------------|
A|--5--5--5--5---7--7--7--7---8---8---8---8----12--12--12--12---10---10--10---7--7---7--7--7--|
E|--------------------------------------------------------------------------------------------|

 

GUITAR (Vocals):

 

e|-------------------------------------------------------------------------------|
B|----------------------10--10--11--13------------10--10-------------------------|
G|--12---10--12-/-14---------------------10---10----------12----10--10---12--10--|
D|-------------------------------------------------------------------------------|
A|-------------------------------------------------------------------------------|
E|-------------------------------------------------------------------------------|

 

GUITAR (Harmony):

 

e|--6---5--6-/-8--|
B|----------------|
G|----------------|
D|----------------|
A|----------------|
E|----------------|

 

BASS:

 

G|---------------------------------------------------------------------------------|
D|---------------------------------------------------------------------------------|
A|--5--5--5--5---4--4--4--4---3--3--3--3---0--0--0--0--------------3--3---3--3--3--|
E|------------------------------------------------------3---3--3-------------------|

 

GUITAR (Rhythm):

 

e|-------------------------------------------------------------|
B|---------------------------------------------10--10--10--10--|
G|--7--7--7--7---9--9--9--9---10--10--10--10---9---9---9---9---|
D|--7--7--7--7---9--9--9--9---10--10--10--10---7---7---7---7---|
A|--5--5--5--5---7--7--7--7---8---8---8---8--------------------|
E|-------------------------------------------------------------|

 

GUITAR (Lead):

 

e|-------------------------------------------------------------|
B|--6--6--6--6---8--8--8--8---10--10--10--10---13--13--13--13--|
G|-------------------------------------------------------------|
D|--3--3--3--3---5--5--5--5---7---7---7---7----10--10--10--10--|
A|-------------------------------------------------------------|
E|-------------------------------------------------------------|

 

GUITAR (Vocals):

 

e|----------------|
B|----------------|
G|--12----10--10--|
D|----------------|
A|----------------|
E|----------------|

 

BASS:

 

G|-----------------------------------------------------|
D|-----------------------------------------7--7--7--7--|
A|--5--5--5--5---7--7--7--7---8--8--8--8---------------|

E|-----------------------------------------------------|

 

GUITAR (Rhythm):

 

e|------------------------------------------------------|
B|------------------------------------------------------|
G|---------5--5---6--6---7--7--7----------5--5---7---8--|
D|--5--5---5--5---5--5---7--7--7---5--5---5--5---7---8--|
A|--5--5---3--3---4--4---5--5--5---5--5---3--3---5---6--|
E|--3--3---------------------------3--3-----------------|

 

GUITAR (Lead):

 

e|----------------------------------------------------------|
B|--10--10---8--8---8--8---5---6---10--10---8--8---10---11--|
G|----------------------------------------------------------|
D|--7---7----5--5---5--5---2---3---7---7----5--5---7----8---|
A|----------------------------------------------------------|
E|----------------------------------------------------------|

 

BASS:

 

G|------------------------------------------------------|
D|------------------------------------------------------|
A|---------3--3---4--4---5--5--5----------3--3---5---6--|
E|--3--3---------------------------3--3-----------------|

 


Verse/Estrofa:

 

GUITAR (Rhythm):

 

e|--1--1--1--1--1--1---1--1--1--1--1--1---1--1--1--1--1--1---0--0--0--0--0--0--|
B|--3--3--3--3--3--3---3--3--3--3--3--3---3--3--3--3--3--3---1--1--1--1--1--1--|
G|--2--2--2--2--2--2---2--2--2--2--2--2---3--3--3--3--3--3---2--2--2--2--2--2--|
D|--0--0--0--0--0--0---0--0--0--0--0--0---3--3--3--3--3--3---2--2--2--2--2--2--|
A|----------------------------------------1--1--1--1--1--1---0--0--0--0--0--0--|
E|-----------------------------------------------------------------------------|

 

GUITAR (Vocals):

 

e|------|-----------------------------------------------------------------------------|
B|------|---------------------------------------------------------------8-/-10--------|
G|------|--10-----------10---10--10--10--10---10--7--10---10--7--10--7----------------|
D|--10--|-------10--10------------------------------------------------------------10--|
A|------|-----------------------------------------------------------------------------|
E|------|-----------------------------------------------------------------------------|

 

GUITAR (Harmony):

 

e|-----|--5---------5---5--5--5--5---------|
B|--6--|------6--6----------------------6--|
G|-----|-----------------------------------|
D|-----|-----------------------------------|
A|-----|-----------------------------------|
E|-----|-----------------------------------|

 

BASS:

 

G|-----------------------------------------------------------------------------------------------------|
D|-----------------------------------------------------------------------------------------------------|
A|--5--5--5--5--5--5--5--5---5--5--5--5--5--5--5--5---1--1--1--1--1--1--1--1---0--0--0--0--0--0--0--0--|
E|-----------------------------------------------------------------------------------------------------|

 

GUITAR (Rhythm):

 

e|--1--1--1--1--1--1---1--1--1--1--1--1---1--1--1--1--1--1---0--0--0--0--0--0--|
B|--3--3--3--3--3--3---3--3--3--3--3--3---3--3--3--3--3--3---1--1--1--1--1--1--|
G|--2--2--2--2--2--2---2--2--2--2--2--2---3--3--3--3--3--3---0--0--0--0--0--0--|
D|--0--0--0--0--0--0---0--0--0--0--0--0---3--3--3--3--3--3---2--2--2--2--2--2--|
A|----------------------------------------1--1--1--1--1--1---3--3--3--3--3--3--|
E|-----------------------------------------------------------------------------|

 

GUITAR (Vocals):

 

e|----------------------------------------------------------------------------|
B|-----------------------------------------------------10--8------------------|
G|--10-----------10---10--10--10--10---10--7--10---10---------10--10----------|
D|-------10--10---------------------------------------------------------5--7--|
A|----------------------------------------------------------------------------|
E|----------------------------------------------------------------------------|

 

GUITAR (Harmony):

 

e|--5---------5---5--5--5--5----------------|
B|------6--6--------------------------------|
G|------------------------------------------|
D|------------------------------------------|
A|--------------------------------5-/-7--5--|
E|------------------------------------------|

 

BASS:

 

G|-----------------------------------------------------------------------------------------------------|
D|-----------------------------------------------------------------------------------------------------|
A|--5--5--5--5--5--5--5--5---5--5--5--5--5--5--5--5---1--1--1--1--1--1--1--1---3--3--3--3--3--3--3--3--|
E|-----------------------------------------------------------------------------------------------------|

 

GUITAR (Rhythm):

 

e|--1--1--1--1--1--1---1--1--1--1--1--1---1--1--1--1--1--1---0--0--0---0--0--0--|
B|--3--3--3--3--3--3---3--3--3--3--3--3---3--3--3--3--3--3---1--1--1---1--1--1--|
G|--2--2--2--2--2--2---2--2--2--2--2--2---3--3--3--3--3--3---2--2--2---0--0--0--|
D|--0--0--0--0--0--0---0--0--0--0--0--0---3--3--3--3--3--3---2--2--2---2--2--2--|
A|----------------------------------------1--1--1--1--1--1---0--0--0---3--3--3--|
E|------------------------------------------------------------------------------|

 

GUITAR (Vocals):

 

e|-------------------------------------------------------------------------------------|
B|--10--10--10---8--8--8-------------------------------------------8-/-10----6-/-8--6--|
G|-------------------------10--10--10--10---10--10---10--7--10--7----------------------|
D|-------------------------------------------------------------------------------------|
A|-------------------------------------------------------------------------------------|
E|-------------------------------------------------------------------------------------|

 

GUITAR (Harmony):

 

e|-------------------------------------------------------|
B|--6--6--6---5--5--5------------------------------------|
G|----------------------7--7--7--7---7--7------7-/-9--7--|
D|-------------------------------------------------------|
A|-------------------------------------------------------|
E|-------------------------------------------------------|

 

BASS:

 

G|-----------------------------------------------------------------------------------------------------|
D|-----------------------------------------------------------------------------------------------------|
A|--5--5--5--5--5--5--5--5---5--5--5--5--5--5--5--5---1--1--1--1--1--1--1--1---0--0--0--0--3--3--3--3--|
E|-----------------------------------------------------------------------------------------------------|

 

GUITAR (Rhythm):

 

e|--1--1--1--1--1--1---1--1--1--1--1--1---1--1--1--1--1--1---3--3---------|
B|--3--3--3--3--3--3---3--3--3--3--3--3---3--3--3--3--3--3---5--5---------|
G|--2--2--2--2--2--2---2--2--2--2--2--2---3--3--3--3--3--3---5--5---6--6--|
D|--0--0--0--0--0--0---0--0--0--0--0--0---3--3--3--3--3--3---5--5---5--5--|
A|----------------------------------------1--1--1--1--1--1---3--3---4--4--|
E|------------------------------------------------------------------------|

 

GUITAR (Vocals):

 

e|------------------------------------------------------------------------------------|
B|--10--10--10---8--8--8---8--8--8--8-------------------8--10---8------------8--8--9--|
G|-------------------------------------10--10---10--10-------------10--10-------------|
D|------------------------------------------------------------------------------------|
A|------------------------------------------------------------------------------------|
E|------------------------------------------------------------------------------------|

 

GUITAR (Harmony):

 

e|----------------------------------------|
B|--6--6--6---5--5--5---5--5--5--5--------|
G|----------------------------------7--7--|
D|----------------------------------------|
A|----------------------------------------|
E|----------------------------------------|

 

BASS:

 

G|------------------------------------------------------------------------------------------------------|
D|------------------------------------------------------------------------------------------------------|
A|--5--5--5--5--5--5--5--5---5--5--5--5--5--5--5--5---1--1--1--1--1--1--1--1---3--3--3--3---4--4--4--4--|
E|------------------------------------------------------------------------------------------------------|

Itteki no Eikyou - Tron544
00:00 / 00:00
DONATE%20BUTTON%20(EN)_edited.png

Pre-Chorus/Pre-Estribillo:

 

GUITAR (Rhythm):

 

e|--5--|
B|--6--|
G|--7--|
D|--7--|
A|--5--|
E|-----|

 

GUITAR (Vocals):

 

e|-------------------------------------------------------------------------|
B|--8-----------8--9--8-------------------------------8-/-10---10--10--11--|
G|-----10--10------------10----10--7--10---7--10---7-----------------------|
D|-------------------------------------------------------------------------|
A|-------------------------------------------------------------------------|
E|-------------------------------------------------------------------------|

 

BASS:

 

G|-----|
D|-----|
A|--5--|
E|-----|

 

GUITAR (Rhythm):

 

e|----------------------------------------------------------------------------------------|
B|----------------------------------------------------------------------------------------|
G|----------------------------------------------------------------------------------------|
D|---5---x--x--x--x--x---7--x--7--x--7--x--7--x--7--8---x--x--x--x--x---10---x--x--x--10--|
A|---5---x--x--x--x--x---7--x--7--x--7--x--7--x--7--8---x--x--x--x--x---10---x--x--x--10--|
E|---3---x--x--x--x--x---5--x--5--x--5--x--5--x--5--6---x--x--x--x--x---8----x--x--x--8---|

 

GUITAR (Vocals):

 

e|-------------------------------------------------------------------------------------------|
B|--13-------------------------------------------------------------10---8-/-10--8----10--10--|
G|-------10--------10---10--10--10--10--10--10--7--10---10--7--10----------------------------|
D|------------12-----------------------------------------------------------------------------|
A|-------------------------------------------------------------------------------------------|
E|-------------------------------------------------------------------------------------------|

 

BASS:

 

G|-------------------------------------------------------------------------|
D|-------------------------------------------------------------------------|
A|-------------------------------------------------------------------------|
E|--3---3--3--3--3--3---5--5--5--5--5--6---6--6--6--6--6---8---8--8--8--8--|

 


Chorus/Estribillo:

 

GUITAR (Rhythm):

 

e|-----------------------------------------------------|
B|-----------------------------------------------------|
G|--(3)-x--x--x--x--x--x--x---(5)-x--x--x--x--x--x--x--|
D|--(3)-x--x--x--x--x--x--x---(5)-x--x--x--x--x--x--x--|
A|--(1)-x--x--x--x--x--x--x---(3)-x--x--x--x--x--x--x--|
E|-----------------------------------------------------|

 

GUITAR (Lead):

 

e|--------------------------------------------------------------------|
B|--6-6-6-6-6-6-6-6-6-6-6-6-6-6-6-6--8-8-8-8-8-8-8-8-8-8-8-8-8-8-8-8--|
G|--------------------------------------------------------------------|
D|--3-3-3-3-3-3-3-3-3-3-3-3-3-3-3-3--5-5-5-5-5-5-5-5-5-5-5-5-5-5-5-5--|
A|--------------------------------------------------------------------|
E|--------------------------------------------------------------------|

 

GUITAR (Vocals):

 

e|--------------------------------|
B|--10--11--10--------------------|
G|--------------10-/-12---12--12--|
D|--------------------------------|
A|--------------------------------|
E|--------------------------------|

 

GUITAR (Harmony):

 

e|--------5------------|
B|--6--8---------------|
G|-----------5---5--5--|
D|---------------------|
A|---------------------|
E|---------------------|

 

BASS:

 

G|---------------------------------------------------|
D|---------------------------------------------------|
A|--1--1--1--1--1--1--1--1---3--3--3--3--3--3--3--3--|
E|---------------------------------------------------|

 

GUITAR (Rhythm):

 

e|-----------------------------------------------------|
B|-----------------------------------------------------|
G|--(2)-x--x--x--x--x--x--x---(7)-x--x--x--x--x--x--x--|
D|--(2)-x--x--x--x--x--x--x---(7)-x--x--x--x--x--x--x--|
A|--(0)-x--x--x--x--x--x--x---(5)-x--x--x--x--x--x--x--|
E|-----------------------------------------------------|

 

GUITAR (Lead):

 

e|------------------------------------------------------------------------------------|
B|--5-5-5-5-5-5-5-5-5-5-5-5-5-5-5-5--10-10-10-10-10-10-10-10-10-10-10-10-10-10-10-10--|
G|------------------------------------------------------------------------------------|
D|--2-2-2-2-2-2-2-2-2-2-2-2-2-2-2-2--7--7--7--7--7--7--7--7--7--7--7--7--7--7--7--7---|
A|------------------------------------------------------------------------------------|
E|------------------------------------------------------------------------------------|

 

GUITAR (Vocals):

 

e|----------------------------------|
B|---------10-/-11---11-\-10--------|
G|--12--9-----------------------10--|
D|----------------------------------|
A|----------------------------------|
E|----------------------------------|

 

GUITAR (Harmony):

 

e|-------------------------------|
B|-----5-----6-/-8---8-\-6-------|
G|--5-----5-------------------5--|
D|-------------------------------|
A|-------------------------------|
E|-------------------------------|

 

BASS:

 

G|---------------------------------------------------|
D|---------------------------------------------------|
A|--0--0--0--0--0--0--0--0---5--5--5--5--5--5--5--5--|
E|---------------------------------------------------|

 

GUITAR (Rhythm):

 

e|-----------------------------------------------------|
B|-----------------------------------------------------|
G|--(3)-x--x--x--x--x--x--x---(5)-x--x--x--x--x--x--x--|
D|--(3)-x--x--x--x--x--x--x---(5)-x--x--x--x--x--x--x--|
A|--(1)-x--x--x--x--x--x--x---(3)-x--x--x--x--x--x--x--|
E|-----------------------------------------------------|

 

GUITAR (Lead):

 

e|--------------------------------------------------------------------|
B|--6-6-6-6-6-6-6-6-6-6-6-6-6-6-6-6--8-8-8-8-8-8-8-8-8-8-8-8-8-8-8-8--|
G|--------------------------------------------------------------------|
D|--3-3-3-3-3-3-3-3-3-3-3-3-3-3-3-3--5-5-5-5-5-5-5-5-5-5-5-5-5-5-5-5--|
A|--------------------------------------------------------------------|
E|--------------------------------------------------------------------|

 

GUITAR (Vocals):

 

e|---------------------------------------|
B|--10--11--13---------------------------|
G|--------------10-/-12------12--12--12--|
D|---------------------------------------|
A|---------------------------------------|
E|---------------------------------------|

 

GUITAR (Harmony):

 

e|--------5------------------|
B|--6--8-----5------5--5--5--|
G|---------------------------|
D|---------------------------|
A|---------------------------|
E|---------------------------|

 

BASS:

 

G|---------------------------------------------------|
D|---------------------------------------------------|
A|--1--1--1--1--1--1--1--1---3--3--3--3--3--3--3--3--|
E|---------------------------------------------------|

 

GUITAR (Rhythm):

 

e|----------------------------------------------------|
B|----------------------------------------------------|
G|--(7)-x--x--x--x--x--x--x---x--x--x--x--x--x--x--x--|
D|--(7)-x--x--x--x--x--x--x---x--x--x--x--x--x--x--x--|
A|--(5)-x--x--x--x--x--x--x---x--x--x--x--x--x--x--x--|
E|----------------------------------------------------|

 

GUITAR (Lead):

 

e|----------------------------------------------------------------------------------------------------|
B|--10-10-10-10-10-10-10-10-10-10-10-10-10-10-10-10--10-10-10-10-10-10-10-10-10-10-10-10-10-10-10-10--|
G|----------------------------------------------------------------------------------------------------|
D|--7--7--7--7--7--7--7--7--7--7--7--7--7--7--7--7---7--7--7--7--7--7--7--7--7--7--7--7--7--7--7--7---|
A|----------------------------------------------------------------------------------------------------|
E|----------------------------------------------------------------------------------------------------|

 

GUITAR (Vocals):

 

e|------------------------------------------|
B|---------10-/-11---11-\-10----10--10--10--|
G|--12--9-----------------------------------|
D|------------------------------------------|
A|------------------------------------------|
E|------------------------------------------|

 

GUITAR (Harmony):

 

e|----------------------------------|
B|--5-----6-/-8---8-\-6----6--6--6--|
G|-----5----------------------------|
D|----------------------------------|
A|----------------------------------|
E|----------------------------------|

 

BASS:

 

G|---------------------------------------------------|
D|---------------------------------------------------|
A|--5--5--5--5--5--5--5--5---5--5--5--5--5--5--5--5--|
E|---------------------------------------------------|

 

GUITAR (Rhythm):

 

e|-----------------------------------------------------------------------------|
B|-----------------------------------------------------------------------------|
G|--3--3--3--3--3--3---5--5--5--5--5--5---2--2--2--2--2--2---7--7--7--7--7--7--|
D|--3--3--3--3--3--3---5--5--5--5--5--5---2--2--2--2--2--2---7--7--7--7--7--7--|
A|--1--1--1--1--1--1---3--3--3--3--3--3---0--0--0--0--0--0---5--5--5--5--5--5--|
E|-----------------------------------------------------------------------------|

 

GUITAR (Lead):

 

e|------------------------------------------------------------|
B|--6--6---6--6----8--8---5--5----5--5---5--5----8--8---6--6--|
G|--5--5---5--5----5--5---5--5----5--5---5--5----5--5---5--5--|
D|------------------------------------------------------------|
A|------------------------------------------------------------|
E|------------------------------------------------------------|

 

GUITAR (Vocals):

 

e|---------------------------------------------------------------------------------|
B|--10---11--10-----------13------------------------10---10--11---10---10--10--11--|
G|----------------12--12-------12--12--12--12---9----------------------------------|
D|---------------------------------------------------------------------------------|
A|---------------------------------------------------------------------------------|
E|---------------------------------------------------------------------------------|

 

GUITAR (Harmony):

 

e|-------------------------------------------------------|
B|--6---8--5---5--5--5----5--5--5--5-------6---6--8---6--|
G|-------------------------------------5-----------------|
D|-------------------------------------------------------|
A|-------------------------------------------------------|
E|-------------------------------------------------------|

 

BASS:

 

G|-----------------------------------------------------------------------------------------------------|
D|-----------------------------------------------------------------------------------------------------|
A|--1--1--1--1--1--1--1--1---3--3--3--3--3--3--3--3---0--0--0--0--0--0--0--0---5--5--5--5--5--5--5--5--|
E|-----------------------------------------------------------------------------------------------------|

 

GUITAR (Rhythm):

 

e|--------------------------------------------------------------------------------------------|
B|--------------------------------------------------------------------------------------------|
G|--3--3--3--3--3--3---5--5--5--5--5--5----7--7--7--7---6--6--6--6---5--5--5--5---2--2--2--2--|
D|--3--3--3--3--3--3---5--5--5--5--5--5----7--7--7--7---5--5--5--5---5--5--5--5---2--2--2--2--|
A|--1--1--1--1--1--1---3--3--3--3--3--3----5--5--5--5---4--4--4--4---3--3--3--3---0--0--0--0--|
E|--------------------------------------------------------------------------------------------|

 

GUITAR (Lead):

 

e|------------------------------------------------------------------------------------------|
B|--6--6---6--6----8--8---8--8--------------------------------------------------------------|
G|--5--5---5--5----5--5---5--5---7--7--7--7---9--9--9--9---10--10--10--10---14--14--14--14--|
D|------------------------------------------------------------------------------------------|
A|-------------------------------5--5--5--5---7--7--7--7---8---8---8---8----12--12--12--12--|
E|------------------------------------------------------------------------------------------|

 

GUITAR (Vocals):

 

e|------------------------------------------------------------------------------------|
B|--13-----------10--10---------------------------10----------------------10--10--11--|
G|------10---10----------12---12--12--12--10--12------12-/-14-\-12--10----------------|
D|------------------------------------------------------------------------------------|
A|------------------------------------------------------------------------------------|
E|------------------------------------------------------------------------------------|

 

GUITAR (Harmony):

 

e|--6--8---6-h-8-p-6-p-5--|
B|------------------------|
G|------------------------|
D|------------------------|
A|------------------------|
E|------------------------|

 

BASS:

 

G|--------------------------------------------------------------------------------------------------------|
D|--------------------------------------------------------------------------------------------------------|
A|--1--1--1--1--1--1--1--1---3--3--3--3--3--3--3--3----5--5--5--5---4--4--4--4---3--3--3--3---0--0--0--0--|
E|--------------------------------------------------------------------------------------------------------|

 

GUITAR (Rhythm):

 

e|---------------------------------------------------------|
B|-----------------------------------------------------10--|
G|-------------5--5---5--5--5---7--7---9--9---10--10---9---|
D|--5---5--5---5--5---5--5--5---7--7---9--9---10--10---7---|
A|--5---5--5---3--3---3--3--3---5--5---7--7---8---8--------|
E|--3---3--3-----------------------------------------------|

 

GUITAR (Lead):

 

e|-------------------------------------------------------------|
B|----------------------------------6--6---8--8---10--10---13--|
G|--12---12--12---9--9---9--9--9-------------------------------|
D|----------------------------------3--3---5--5---7---7----10--|
A|--10---10--10---7--7---7--7--7-------------------------------|
E|-------------------------------------------------------------|

 

GUITAR (Vocals):

 

e|-----------------------------------------------------------|
B|--13------------10--10-------------------------------------|
G|-------10---10----------12---10--10---12--10--12---10--10--|
D|-----------------------------------------------------------|
A|-----------------------------------------------------------|
E|-----------------------------------------------------------|

 

BASS:

 

G|------------------------------------------------------|
D|---------------------------------------------------7--|
A|-------------3--3---3--3--3---5--5---7--7---8--8------|
E|--3---3--3--------------------------------------------|

 

GUITAR (Rhythm):

 

e|-----------------------|
B|-----------------------|
G|---------5--5---7---8--|
D|--5--5---5--5---7---8--|
A|--5--5---3--3---5---6--|
E|--3--3-----------------|

 

GUITAR (Lead):

 

e|---------------------------|
B|--10--10---8--8---10---11--|
G|---------------------------|
D|--7---7----5--5---7----8---|
A|---------------------------|
E|---------------------------|

 

BASS:

G|-----------------------|
D|-----------------------|
A|---------3--3---5---6--|
E|--3--3-----------------|

©2015 by Fefe - Tron544

Sigueme en:

  • YouTube - White Circle
  • Facebook - White Circle
  • Instagram - White Circle
  • Twitter - White Circle
This site was designed with the
.com
website builder. Create your website today.
Start Now