INNOCENT ~MUJAKI NA MAMA DE~

DIGIMON FRONTIER

TABS ~ By Fefe (Tron544)

 

Intro:

 

GUITAR 1:

 

e|--3------5------7------3--3--3--3---5--5--5--5--|

B|--3------7------8------5--5--5--5---7--7--7--7--|

G|--4------7------9------5--5--5--5---7--7--7--7--|

D|--5------7------9------5--5--5--5---7--7--7--7--|

A|--5------5------7------3--3--3--3---5--5--5--5--|

E|--3---------------------------------------------|

 

GUITAR 2:

 

e|-----------------------------------------------|

B|-----------------------------------------------|

G|--12---------12--11--9-------------9--9----12--|

D|------12--9-------------12--10--9--------------|

A|-----------------------------------------------|

E|-----------------------------------------------|

 

GUITAR 1:

 

e|--0--0--0--0--0--0--0--0--0---3--3--3--3--3--3--3--3--3--|

B|--0--0--0--0--0--0--0--0--0---5--5--5--5--5--5--5--5--5--|

G|--0--0--0--0--0--0--0--0--0---5--5--5--5--5--5--5--5--5--|

D|--2--2--2--2--2--2--2--2--2---5--5--5--5--5--5--5--5--5--|

A|--2--2--2--2--2--2--2--2--2---3--3--3--3--3--3--3--3--3--|

E|--0--0--0--0--0--0--0--0--0------------------------------|

 

GUITAR 2:

 

e|----------------------------------|

B|-------------------15---15-b--15--|

G|-----------11--12-----------------|

D|--12-h-14-------------------------|

A|----------------------------------|

E|----------------------------------|

 

GUITAR 1:

 

e|--5--5--5--5--5--5--5--5--5---5--5--5--5--5--5--5--5--5--|

B|--7--7--7--7--7--7--7--7--7---7--7--7--7--7--7--7--7--7--|

G|--7--7--7--7--7--7--7--7--7---7--7--7--7--7--7--7--7--7--|

D|--7--7--7--7--7--7--7--7--7---7--7--7--7--7--7--7--7--7--|

A|--5--5--5--5--5--5--5--5--5---5--5--5--5--5--5--5--5--5--|

E|---------------------------------------------------------|

 

GUITAR 2:

 

e|----------------------------------------------------------|

B|--13--12------12------15-b--15-b-r--15----12--15-b--15-b--|

G|----------14------12--------------------------------------|

D|----------------------------------------------------------|

A|----------------------------------------------------------|

E|----------------------------------------------------------|

 

 

Verse/Estrofa:

 

GUITAR 1:

 

e|--0---0------5---5------0---0------3----5--|--0---0------5---5------0---0------3----5--|

B|--0---0------7---7------2---2------5----7--|--0---0------7---7------2---2------5----7--|

G|--0---0------7---7------2---2------5----7--|--0---0------7---7------2---2------5----7--|

D|--2---2------7---7------2---2------5----7--|--2---2------7---7------2---2------5----7--|

A|--2---2------5---5------0---0------3----5--|--2---2------5---5------0---0------3----5--|

E|--0---0------------------------------------|--0---0------------------------------------|

 

GUITAR 2:

 

e|----------------------------------------------------|----------------------------------------------------|

B|----------------------------------------------------|----------------------------------------------------|

G|----------------------------------------------------|----------------------------------------------------|

D|--6--6--6--7--9--6---7--7--7--6---------------------|--6--6--6--7--9--6---7--7--7--6---------------------|

A|---------------------------------9--7--7---9--7--9--|---------------------------------9--7--7---9--7--9--|

E|----------------------------------------------------|----------------------------------------------------|

 

 

Pre-Chorus/Pre-Estribillo:

 

GUITAR 1:

 

e|--4--4--4--4---2--2--2--2---4--4--4--4---2--2--2--2--|--2--2--2--2--2--2--2--2---4--4--4--4--4--4--4--4--|

B|--5--5--5--5---2--2--2--2---5--5--5--5---2--2--2--2--|--4--4--4--4--4--4--4--4---4--4--4--4--4--4--4--4--|

G|--6--6--6--6---3--3--3--3---6--6--6--6---3--3--3--3--|--4--4--4--4--4--4--4--4---5--5--5--5--5--5--5--5--|

D|--6--6--6--6---4--4--4--4---6--6--6--6---4--4--4--4--|--4--4--4--4--4--4--4--4---6--6--6--6--6--6--6--6--|

A|--4--4--4--4---4--4--4--4---4--4--4--4---4--4--4--4--|--2--2--2--2--2--2--2--2---6--6--6--6--6--6--6--6--|

E|---------------2--2--2--2----------------2--2--2--2--|---------------------------4--4--4--4--4--4--4--4--|

 

GUITAR 2:

 

e|-------------------------------|---------------------------------------------|

B|-------------------------------|---------------------------------------9--7--|

G|-----6--8--9--6-------6--8--9--|--9--9--9--8--6------------------------------|

D|--6----------------6-----------|-----------------9--9--9--9--9--10--6--------|

A|-------------------------------|---------------------------------------------|

E|-------------------------------|---------------------------------------------|

Innocent ~Mujaki na Mama de~ - Tron544
00:00 / 00:00
DONATE%20BUTTON%20(EN)_edited.png

Chorus/Estribillo:

 

GUITAR 1:

 

e|--0--0--0--0--0--0---2--2--2--2--2--2---2--2--2--2--2--2---2--2--2--2--2--2--|

B|--2--2--2--2--2--2---4--4--4--4--4--4---2--2--2--2--2--2---3--3--3--3--3--3--|

G|--2--2--2--2--2--2---4--4--4--4--4--4---3--3--3--3--3--3---4--4--4--4--4--4--|

D|--2--2--2--2--2--2---4--4--4--4--4--4---4--4--4--4--4--4---4--4--4--4--4--4--|

A|--0--0--0--0--0--0---2--2--2--2--2--2---4--4--4--4--4--4---2--2--2--2--2--2--|

E|----------------------------------------2--2--2--2--2--2---------------------|

 

GUITAR 2:

 

e|--------------------------------------------|

B|---------------7-------------9--7-----7-----|

G|--9---8--8--9-------9--8-----------9-----9--|

D|--------------------------6-----------------|

A|--------------------------------------------|

E|--------------------------------------------|

 

GUITAR 1:

 

e|--0--0--0--0--0--0---2--2--2--2--2--2---0--0--0--0--0--0---0--0--0--0--0--0--|

B|--2--2--2--2--2--2---4--4--4--4--4--4---0--0--0--0--0--0---0--0--0--0--0--0--|

G|--2--2--2--2--2--2---4--4--4--4--4--4---0--0--0--0--0--0---0--0--0--0--0--0--|

D|--2--2--2--2--2--2---4--4--4--4--4--4---2--2--2--2--2--2---2--2--2--2--2--2--|

A|--0--0--0--0--0--0---2--2--2--2--2--2---2--2--2--2--2--2---2--2--2--2--2--2--|

E|----------------------------------------0--0--0--0--0--0---0--0--0--0--0--0--|

 

GUITAR 2:

 

e|-----------------------------------------------------|

B|-----------------------------------------------------|

G|--6--6--8--9----9--8--9--8--6-----6------------------|

D|-------------------------------9-----9------6--7--9--|

A|-----------------------------------------------------|

E|-----------------------------------------------------|

 

GUITAR 1:

 

e|--0--0--0--0--0--0---2--2--2--2--2--2---2--2--2--2--2--2---2--2--2--2--2--2--|

B|--2--2--2--2--2--2---4--4--4--4--4--4---2--2--2--2--2--2---3--3--3--3--3--3--|

G|--2--2--2--2--2--2---4--4--4--4--4--4---3--3--3--3--3--3---4--4--4--4--4--4--|

D|--2--2--2--2--2--2---4--4--4--4--4--4---4--4--4--4--4--4---4--4--4--4--4--4--|

A|--0--0--0--0--0--0---2--2--2--2--2--2---4--4--4--4--4--4---2--2--2--2--2--2--|

E|----------------------------------------2--2--2--2--2--2---------------------|

 

GUITAR 2:

 

e|---------------------------------------------|

B|---------------7-------9--10--9--7-----7-----|

G|--9---8--8--9-----------------------9-----9--|

D|--------------------6------------------------|

A|---------------------------------------------|

E|---------------------------------------------|

 

GUITAR 1:

 

e|--0--0--0--0--0--0---2--2--2--2--2--2--|

B|--2--2--2--2--2--2---4--4--4--4--4--4--|

G|--2--2--2--2--2--2---4--4--4--4--4--4--|

D|--2--2--2--2--2--2---4--4--4--4--4--4--|

A|--0--0--0--0--0--0---2--2--2--2--2--2--|

E|---------------------------------------|

 

GUITAR 2:

 

e|-----------------------------------------|

B|-----------------------------------------|

G|--6--6--8--9----6-----9--9--8--9--8-h-9--|

D|-------------------9---------------------|

A|-----------------------------------------|

E|-----------------------------------------|

 

 

Outro:

 

GUITAR 1:

 

e|--0--0--0--0--0--0--0--0--0---3--3--3--3--3--3--3--3--3--|

B|--0--0--0--0--0--0--0--0--0---5--5--5--5--5--5--5--5--5--|

G|--0--0--0--0--0--0--0--0--0---5--5--5--5--5--5--5--5--5--|

D|--2--2--2--2--2--2--2--2--2---5--5--5--5--5--5--5--5--5--|

A|--2--2--2--2--2--2--2--2--2---3--3--3--3--3--3--3--3--3--|

E|--0--0--0--0--0--0--0--0--0------------------------------|

 

GUITAR 2:

 

e|----------------------------------|

B|-------------------15---15-b--15--|

G|-----------11--12-----------------|

D|--12-h-14-------------------------|

A|----------------------------------|

E|----------------------------------|

 

GUITAR 1:

 

e|--5--5--5--5--5--5--5--5--5---5--5--5--5--5--5--5--5--5--|

B|--7--7--7--7--7--7--7--7--7---7--7--7--7--7--7--7--7--7--|

G|--7--7--7--7--7--7--7--7--7---7--7--7--7--7--7--7--7--7--|

D|--7--7--7--7--7--7--7--7--7---7--7--7--7--7--7--7--7--7--|

A|--5--5--5--5--5--5--5--5--5---5--5--5--5--5--5--5--5--5--|

E|---------------------------------------------------------|

 

GUITAR 2:

 

e|----------------------------------------------------------|

B|--13--12------12------15-b--15-b-r--15----12--15-b--15-b--|

G|----------14------12--------------------------------------|

D|----------------------------------------------------------|

A|----------------------------------------------------------|

E|----------------------------------------------------------|

 

GUITAR 1:

 

e|--7--7--7--7---7---7---7---7----7--|

B|--9--9--9--9---10--10--10--10---9--|

G|--9--9--9--9---9---9---9---9----9--|

D|--9--9--9--9---9---9---9---9----9--|

A|--7--7--7--7---7---7---7---7----7--|

E|-----------------------------------|

©2015 by Fefe - Tron544

Sigueme en:

  • YouTube - White Circle
  • Facebook - White Circle
  • Instagram - White Circle
  • Twitter - White Circle
This site was designed with the
.com
website builder. Create your website today.
Start Now