INFERNO

FIRE FORCE

TABS ~ By Fefe (Tron544)

 

Intro:

GUITAR (Rhythm):

e|--4--4-4--4-4-4--0--0-0--0-0-0--2--2-2--2-2-2--0-0---4-4----|
B|--5--5-5--5-5-5--2--2-2--2-2-2--4--4-4--4-4-4--0-0---4-4----|
G|--6--6-6--6-6-6--2--2-2--2-2-2--4--4-4--4-4-4--1-1---5-5----|
D|--6--6-6--6-6-6--2--2-2--2-2-2--4--4-4--4-4-4--2-2---4-4----|
A|--4--4-4--4-4-4--0--0-0--0-0-0--2--2-2--2-2-2--2-2---6-6----|
E|-----------------------------------------------0-0---4-4----|

GUITAR (Lead):

e|--------------------------------------------8-p-4----|
B|-----------------------------------------------------|
G|--9--4--6--4-----4--6--4--9--------------------------|
D|--------------6--------------7--6--6--2-2------------|
A|--7--2--4--2-----2--4--2--7-----------2-2------------|
E|--------------4--------------5--4--4--0-0------------|

BASS:

G|---------------------------------------------------------------|
D|---------------------------------------------------------------|
A|--4-4-4-4-4-4-4-4-0-0-0-0-0-0-0-0-2-2-2-2-2-2-2-2--------------|
E|--------------------------------------------------0-0---4-4----|

 


Verse/Estrofa:

GUITAR (Vocals):

e|-----|-------------------------------------------------------------|
B|-----|-------------------------------------------------------------|
G|-----|-----------4/6--4--------------------------------------------|
D|--4--|--6--4--6-----------6/7-6---4-6-6-6-6-6--6-6-4-6-6-4------4--|
A|-----|-----------------------------------------------------7--7----|
E|-----|-------------------------------------------------------------|

GUITAR (Rhythm):

e|------------------------------------------------------------|
B|----------------------------10------------------------------|
G|------4-----------------------------4-----------------------|
D|----6--------7------9----10-------6--------7------9------6--|
A|--4--------7------9----9--------4--------7------9------7----|
E|---------5------7----------------------5------7------0------|

GUITAR (Lead):

e|----------------------------------------------------|
B|----------------------------------------------------|
G|------4------------------------4--------------------|
D|----6--------7------9--------6--------7------9------|
A|--4--------7------9--------4--------7------9--------|
E|---------5------7-----------------5------7----------|

GUITAR (Vocals):

e|-------------------------------------------------------------|
B|-------------------------------------------------------------|
G|-----------4/6--4--------------------------------------------|
D|--6--4--6-----------6/7-6---4-6-6-6-6-6-6-6-6-4----4------4--|
A|------------------------------------------------7----7--7----|
E|-------------------------------------------------------------|

GUITAR (Rhythm):

e|----------------------------------------------------------|
B|----------------------------10----------------------------|
G|------4-----------------------------4---------------------|
D|----6--------7------9----10-------6--------7------9--2----|
A|--4--------7------9----9--------4--------7------9----2----|
E|---------5------7----------------------5------7------0----|

GUITAR (Lead):

e|-----------------------------------------------------|
B|-----------------------------------------------------|
G|------4------------------------4---------------------|
D|----6--------7------9--------6--------7------9--2----|
A|--4--------7------9--------4--------7------9----2----|
E|---------5------7-----------------5------7------0----|

GUITAR (Vocals):

e|-------------------------------------------------------------|
B|-------------------------------------------------------------|
G|-----------4/6--4--------------------------------------------|
D|--6--4--6-----------6/7-6---4-6-6-6-6-6--6-6-4-6-6-4------4--|
A|-----------------------------------------------------7--7----|
E|-------------------------------------------------------------|

GUITAR (Rhythm):

e|------------------------------------------------------------|
B|----------------------------10------------------------------|
G|------4-----------------------------4-----------------------|
D|----6--------7------9----10-------6--------7------9------6--|
A|--4--------7------9----9--------4--------7------9------7----|
E|---------5------7----------------------5------7------0------|

GUITAR (Lead):

e|----------------------------------------------------------|
B|--9--7--9--/14--12--\7--7/10----9--9--9--9--10p9-9--9--9--|
G|--------------------------------9--9--9--9--11p9-9--9--9--|
D|--------------------------------9--9--9--9--9----9--9--9--|
A|----------------------------------------------------------|
E|----------------------------------------------------------|

BASS:

G|--------------------------------------------------------------------|
D|-------------------------------------------------------1-1-2-2------|
A|--4-4-4-4-0-0-0-0-2-2-2-2-3-3-6-6--4-4-4-4-0-0-0-0-2-2--------------|
E|---------------------------------------------------------------0-0--|

GUITAR (Vocals):

e|--------------------------------------------------------|
B|--------------------------------------------------------|
G|-----------4/6--4---------------------------------------|
D|--6--4--6-----------6/7-6---4-6-6-6-6-6-6-6-6-4---------|
A|------------------------------------------------7-------|
E|--------------------------------------------------------|

GUITAR (Rhythm):

e|----------------------------------------------------------|
B|----------------------------10----------------------------|
G|------4-----------------------------4---------------------|
D|----6--------7------9----10-------6--------7------9--2----|
A|--4--------7------9----9--------4--------7------9----2----|
E|---------5------7----------------------5------7------0----|

GUITAR (Lead):

e|-----------9---7--------------------------------------|
B|--9--7--9--10--9--9--9/10----9--9--9--9--10p9-9--9----|
G|--9--9--9---------8--8/9-----9--9--9--9--11p9-9--9----|
D|-----------------------------9--9--9--9--9----9--9----|
A|------------------------------------------------------|
E|------------------------------------------------------|

BASS:

G|----------------------------------------------------------------|
D|-------------------------------------------------------1-1-2----|
A|--4-4-4-4-0-0-0-0-2-2-2-2-3-3-6-6--4-4-4-4-0-0-0-0-2-2----------|
E|----------------------------------------------------------------|

 


Pre-Chorus/Pre-Estribillo:

GUITAR (Vocals):

e|-----|-----------------------------------------------------|
B|-----|-----------------------------------------------------|
G|-----|-----------------------------------------------------|
D|-----|-----------------------------------------------------|
A|-----|--7--7--7------------------7/9--9--9--p7--7----7--9--|
E|--7--|-----------7/9--7----7--7----------------------------|

GUITAR (Rhythm):

e|--0--------0--------2--------4--------|
B|--2--------0--------4--------5--------|
G|--2--------1--------4--------6--------|
D|--2--------2--------4--------6--------|
A|--0--------2--------2--------4--------|
E|-----------0--------------------------|

GUITAR (Lead):

e|----------------------------------------|
B|--10--------12--------7--------5--------|
G|--9---------9---------8--------4--------|
D|--7---------9---------7--------6--------|
A|----------------------------------------|
E|----------------------------------------|

GUITAR (Vocals):

e|-------------------------------------------------------|
B|-------------------------------------------------------|
G|--6----------------------------------------------------|
D|-----9--6--7--6--6--------------------6----------------|
A|--------------------9--7--7/9----6---------------------|
E|-------------------------------------------------------|

GUITAR (Rhythm):

e|--0--------0--------2------------------------|
B|--2--------0--------4------------------------|
G|--2--------1--------4------------------------|
D|--2--------2--------4------------------------|
A|--0--------2--------2------------------------|
E|-----------0---------------------------------|

GUITAR (Lead):

e|-----------------------------------------------------|
B|--14--12--9--10--9---------7-------------------------|
G|----------------------9---------8--------------------|
D|-----------------------------------------------------|
A|-----------------------------------------------------|
E|-----------------------------------------------------|

BASS:

G|-------------------------------------------------|
D|-------------------------------------------------|
A|-------------------------------------------------|
E|-----------------------------------4--/8--/11----|

Inferno - Tron544
00:00 / 00:00
DONATE%20BUTTON%20(EN)_edited.png

Chorus/Estribillo:

GUITAR (Vocals):

e|------|-------------9-------------9--------------------------------|
B|------|---------------12------------12-----------------------------|
G|------|--9------9----------11-9----------11-9---11-11/13-----------|
D|--11--|------11------------------------------------------------11--|
A|------|------------------------------------------------------------|
E|------|------------------------------------------------------------|

GUITAR (Rhythm):

e|--4--4-4--4-4-4--0--0-0--0-0-0--2--2-2--2-2-2--7--7--------|
B|--5--5-5--5-5-5--2--2-2--2-2-2--4--4-4--4-4-4--9--9--7--7--|
G|--6--6-6--6-6-6--2--2-2--2-2-2--4--4-4--4-4-4--9--9--8--8--|
D|--6--6-6--6-6-6--2--2-2--2-2-2--4--4-4--4-4-4--9--9--9--9--|
A|--4--4-4--4-4-4--0--0-0--0-0-0--2--2-2--2-2-2--7--7--6--6--|
E|-----------------------------------------------------------|

GUITAR (Lead):

e|--12-12-12-12-12-12-12-12--12-12-12-12-12-12-12-12--12-14-14-14-14-14-14-14--12-12-12-12------|
B|--12-12-12-12-12-12-12-12--12-12-12-12-12-12-12-12--12-14-14-14-14-14-14-14--12-12-12-12-9----|
G|----------------------------------------------------------------------------------------------|
D|----------------------------------------------------------------------------------------------|
A|----------------------------------------------------------------------------------------------|
E|----------------------------------------------------------------------------------------------|

BASS:

G|-------------------------------------------------------------------|
D|-------------------------------------------------------------------|
A|--4-4-4-4-4-4-4-4-----------------2-2-2-2-2-2-2-2-7-7-7-7-6-6-6-6--|
E|------------------2-2-2-2-2-2-2-2----------------------------------|

GUITAR (Vocals):

e|-------------9-------------9----------------------------|
B|---------------12------------12-------------------------|
G|--9------9----------11-9----------11-9---11-9-----------|
D|------11--------------------------------------------11--|
A|--------------------------------------------------------|
E|--------------------------------------------------------|

GUITAR (Rhythm):

e|--4--4-4--4-4-4--0--0-0--0-0-0--2--2-2--2-2-2--4-4---4-4----|
B|--5--5-5--5-5-5--2--2-2--2-2-2--4--4-4--4-4-4--5-5---4-4----|
G|--6--6-6--6-6-6--2--2-2--2-2-2--4--4-4--4-4-4--4-4---5-5----|
D|--6--6-6--6-6-6--2--2-2--2-2-2--4--4-4--4-4-4--6-6---4-4----|
A|--4--4-4--4-4-4--0--0-0--0-0-0--2--2-2--2-2-2--7-7---6-6----|
E|-----------------------------------------------------4-4----|

GUITAR (Lead):

e|--------------------------------------------------12-12---8-8----|
B|--9-9-#-10-#-12---9-9-#-10-#-12---9-9-#-10-#-12---12-12---9-9----|
G|-----------------------------------------------------------------|
D|-----------------------------------------------------------------|
A|-----------------------------------------------------------------|
E|-----------------------------------------------------------------|

BASS:

G|---------------------------------------------------------------|
D|---------------------------------------------------------------|
A|--4-4-4-4-4-4-4-4-0-0-0-0-0-0-0-0-2-2-2-2-2-2-2-2--------------|
E|--------------------------------------------------0-0---4-4----|

GUITAR (Vocals):

e|-------------9-------------9-------------------------------|
B|---------------12------------12----------------------------|
G|--9------9----------11-9----------11-9---11-11/13----11----|
D|------11---------------------------------------------------|
A|-----------------------------------------------------------|
E|-----------------------------------------------------------|

GUITAR (Rhythm):

e|--4--4-4--4-4-4--0--0-0--0-0-0--2--2-2--2-2-2--7--7--------|
B|--5--5-5--5-5-5--2--2-2--2-2-2--4--4-4--4-4-4--9--9--7--7--|
G|--6--6-6--6-6-6--2--2-2--2-2-2--4--4-4--4-4-4--9--9--8--8--|
D|--6--6-6--6-6-6--2--2-2--2-2-2--4--4-4--4-4-4--9--9--9--9--|
A|--4--4-4--4-4-4--0--0-0--0-0-0--2--2-2--2-2-2--7--7--6--6--|
E|-----------------------------------------------------------|

GUITAR (Lead):

e|--12-12-12-12-12-12-12-12--12-12-12-12-12-12-12-12--12-14-14-14-14-14-14-14--12-12-12-12------|
B|--12-12-12-12-12-12-12-12--12-12-12-12-12-12-12-12--12-14-14-14-14-14-14-14--12-12-12-12-9----|
G|----------------------------------------------------------------------------------------------|
D|----------------------------------------------------------------------------------------------|
A|----------------------------------------------------------------------------------------------|
E|----------------------------------------------------------------------------------------------|

BASS:

G|-------------------------------------------------------------------|
D|-------------------------------------------------------------------|
A|--4-4-4-4-4-4-4-4-----------------2-2-2-2-2-2-2-2-7-7-7-7-6-6-6-6--|
E|------------------2-2-2-2-2-2-2-2----------------------------------|

GUITAR (Vocals):

e|----------------------------------------------|
B|-------12----9--------------------------------|
G|--9---------------11----9----11----9----------|
D|----------------------------------------10----|
A|----------------------------------------------|
E|----------------------------------------------|

GUITAR (Rhythm):

e|--4--4-4--4-4-4--0--0-0--0-0-0--2--2-2--2-2-2--4--4--4--4--|
B|--5--5-5--5-5-5--2--2-2--2-2-2--4--4-4--4-4-4--5--5--4--4--|
G|--6--6-6--6-6-6--2--2-2--2-2-2--4--4-4--4-4-4--4--4--5--5--|
D|--6--6-6--6-6-6--2--2-2--2-2-2--4--4-4--4-4-4--6--6--4--4--|
A|--4--4-4--4-4-4--0--0-0--0-0-0--2--2-2--2-2-2--7--7--6--6--|
E|-----------------------------------------------------4--4--|

GUITAR (Lead):

e|--12-------14-------12-------14-------12-------14-------12-------14-------12-------------------|
B|-----12-12----12-12----12-12----12-12----12-12----12-12----12-12----12-12----12-12-12-12/13----|
G|-----------------------------------------------------------------------------------------------|
D|-----------------------------------------------------------------------------------------------|
A|-----------------------------------------------------------------------------------------------|
E|-----------------------------------------------------------------------------------------------|

BASS:

G|-------------------------------------------------------------------|
D|-------------------------------------------------------------------|
A|--4-4-4-4-4-4-4-4-0-0-0-0-0-0-0-0-2-2-2-2-2-2-2-2---------3-3-3-3--|
E|--------------------------------------------------0-0-0-0----------|

GUITAR (Vocals):

e|--------------------------------------------------------|
B|---------9-----9/10--9---------9/10--9------------------|
G|--9--11-----9-----------11--9-----------11--9--9--------|
D|--------------------------------------------------------|
A|--------------------------------------------------------|
E|--------------------------------------------------------|

GUITAR (Rhythm):

e|--4--4-4--4-4-4--0--0-0--0-0-0--2--2-2--2-2-2--4-4---4-4----|
B|--5--5-5--5-5-5--2--2-2--2-2-2--4--4-4--4-4-4--5-5---5-5----|
G|--6--6-6--6-6-6--2--2-2--2-2-2--4--4-4--4-4-4--4-4---4-4----|
D|--6--6-6--6-6-6--2--2-2--2-2-2--4--4-4--4-4-4--6-6---6-6----|
A|--4--4-4--4-4-4--0--0-0--0-0-0--2--2-2--2-2-2--7-7---7-7----|
E|------------------------------------------------------------|

GUITAR (Lead):

e|--12-------14-------12-------14-------12-------14-------12-------14-------12--------|
B|-----12-12----12-12----12-12----12-12----12-12----12-12----12-12----12-12-----------|
G|------------------------------------------------------------------------------------|
D|------------------------------------------------------------------------------------|
A|------------------------------------------------------------------------------------|
E|------------------------------------------------------------------------------------|

BASS:

G|---------------------------------------------------------------|-----|
D|---------------------------------------------------------------|-----|
A|--4-4-4-4-4-4-4-4-0-0-0-0-0-0-0-0-2-2-2-2-2-2-2-2--------------|-----|
E|--------------------------------------------------0-0---0-0----|--4--|

 


Last Chorus/Ultimo Estribillo:

GUITAR (Vocals):

e|-----|---------------------------------------------------------|
B|-----|---------------------------------------------------------|
G|-----|---------------------------------------------------------|
D|-----|------------11-9---------11-9----------------------------|
A|-----|--7-----7----------9-7----------9-7---9-9/11---11-9---7--|
E|--9--|------9--------------------------------------------------|

GUITAR (Rhythm):

e|--4--4-4--4-4-4--0--0-0--0-0-0--2--2-2--2-2-2-----------------|
B|--4--4-4--4-4-4--2--2-2--2-2-2--4--4-4--4-4-4--4--4-4--4-4-4--|
G|--4--4-4--4-4-4--2--2-2--2-2-2--4--4-4--4-4-4--5--5-5--5-5-5--|
D|--6--6-6--6-6-6--2--2-2--2-2-2--4--4-4--4-4-4--4--4-4--4-4-4--|
A|--6--6-6--6-6-6--0--0-0--0-0-0--2--2-2--2-2-2--3--3-3--3-3-3--|
E|--4--4-4--4-4-4-----------------------------------------------|

GUITAR (Vocals):

e|--------------------------------------------------|
B|--------------------------------------------------|
G|--------------------------------------------------|
D|--------------------------------------------------|
A|--7-----7---------7-7---7-9/11---9-9---7-7--------|
E|------9-----9-7-----------------------------------|

GUITAR (Rhythm):

e|--4---4-4---2-2---4-4---0-0---2-2----4-4---4-4----|
B|--5---5-5---5-5---5-5---2-2---4-4----5-5---4-4----|
G|--6---4-4---2-2---4-4---2-2---4-4----4-4---5-5----|
D|--6---6-6---4-4---6-6---2-2---4-4----6-6---4-4----|
A|--4---------2-2---7-7---0-0---2-2----7-7---6-6----|
E|-------------------------------------------4-4----|

GUITAR (Lead):

e|--------------------------12-12---8-8----|
B|--------------------------12-12---9-9----|
G|-----------------------------------------|
D|-----------------------------------------|
A|-----------------------------------------|
E|-----------------------------------------|

BASS:

G|---------------------------------------|
D|---------------------------------------|
A|---------------------------------------|
E|--------------------------0-0---4-4----|

GUITAR (Vocals):

e|------|-------------9-------------12-11---9------9-------------|
B|------|---------------12--------------------12-----12----------|
G|------|--9------9----------11-9--------------------------11----|
D|--11--|------11------------------------------------------------|
A|------|--------------------------------------------------------|
E|------|--------------------------------------------------------|

GUITAR (Rhythm):

e|-------------------------------------------------------------------|
B|--------------------------9-9-9-9----------------------------------|
G|--6-6-6-6-8-8-8-8-9-9-9-9-----------------5-5-5-5-9-9-9-9-8-8-8-8--|
D|--------------------------6-6-6-6-7-7-7-7--------------------------|
A|--4-4-4-4-6-6-6-6-7-7-7-7-----------------3-3-3-3-7-7-7-7-6-6-6-6--|
E|----------------------------------5-5-5-5--------------------------|

GUITAR (Lead):

e|--12-12-12-12-12-12-12-12--12-12-12-12-9-9-9-9--5-5-5-5-8-8-8-8--12-12-12-12-11-11-11-11--|
B|--12-12-12-12-12-12-12-12--12-12-12-12-9-9-9-9--5-5-5-5-9-9-9-9--12-12-12-12-12-12-12-12--|
G|------------------------------------------------------------------------------------------|
D|------------------------------------------------------------------------------------------|
A|------------------------------------------------------------------------------------------|
E|------------------------------------------------------------------------------------------|

BASS:

G|-------------------------------------------------------------------|
D|-------------------------------------------------------------------|
A|--4-4-4-4-6-6-6-6-7-7-7-7-----------------3-3-3-3-7-7-7-7-6-6-6-6--|
E|--------------------------4-4-4-4-5-5-5-5--------------------------|

GUITAR (Vocals):

e|----------------------------------------------|
B|-------12----9--------------------------------|
G|--9---------------11----9----11----9----------|
D|----------------------------------------10----|
A|----------------------------------------------|
E|----------------------------------------------|

GUITAR (Rhythm):

e|--4--4-4--4-4-4--0--0-0--0-0-0--2--2-2--2-2-2--4--4--4--4--|
B|--5--5-5--5-5-5--2--2-2--2-2-2--4--4-4--4-4-4--5--5--4--4--|
G|--6--6-6--6-6-6--2--2-2--2-2-2--4--4-4--4-4-4--4--4--5--5--|
D|--6--6-6--6-6-6--2--2-2--2-2-2--4--4-4--4-4-4--6--6--4--4--|
A|--4--4-4--4-4-4--0--0-0--0-0-0--2--2-2--2-2-2--7--7--6--6--|
E|-----------------------------------------------------4--4--|

GUITAR (Lead):

e|--12-------14-------12-------14-------12-------14-------12-------14-------12-------------------|
B|-----12-12----12-12----12-12----12-12----12-12----12-12----12-12----12-12----12-12-12-12/13----|
G|-----------------------------------------------------------------------------------------------|
D|-----------------------------------------------------------------------------------------------|
A|-----------------------------------------------------------------------------------------------|
E|-----------------------------------------------------------------------------------------------|

BASS:

G|--------------------------------------------------|
D|--------------------------------------------------|
A|--4--4--4--4--0--0--0--0--2--2--2--2--------3--3--|
E|--------------------------------------0--4--------|

GUITAR (Vocals):

e|--------------------------------------------------------|
B|---------9-----9/10--9---------9/10--9------------------|
G|--9--11-----9-----------11--9-----------11--9--9--------|
D|--------------------------------------------------------|
A|--------------------------------------------------------|
E|--------------------------------------------------------|

GUITAR (Rhythm):

e|--4--4--4--4--0--0--0--0------------------|
B|--5--5--5--5--2--2--2--2------------------|
G|--6--6--6--6--2--2--2--2------------------|
D|--6--6--6--6--2--2--2--2------------------|
A|--4--4--4--4--0--0--0--0------------------|
E|------------------------------------------|

GUITAR (Lead):

e|--12-------14-------12-------14-------12------------------------|
B|-----12-12----12-12----12-12----12-12----12-12------------------|
G|----------------------------------------------------------------|
D|----------------------------------------------------------------|
A|----------------------------------------------------------------|
E|----------------------------------------------------------------|

 

BASS:

G|------------------------------------------|
D|------------------------------------------|
A|--4--4--4--4--0--0--0--0------------------|
E|------------------------------------------|

©2015 by Fefe - Tron544

Sigueme en:

  • YouTube - White Circle
  • Facebook - White Circle
  • Instagram - White Circle
  • Twitter - White Circle
This site was designed with the
.com
website builder. Create your website today.
Start Now