IN MY WORLD

BLUE EXORCIST

TABS ~ By Fefe (Tron544)

 

Intro:

 

GUITAR 2:

 

Eb|-----------|-----------------------------------------------------------|

Bb|-----------|-----------------------------------------------------------|

Gb|-----------|-----------------------------------------------------------|

Db|-----------|--0--0--x--0--0--x--0--0--x-----------0--0--x--0--0--x--0--|

Ab|--0--3--5--|--0--0--x--0--0--x--0--0--x--0--3--5--0--0--x--0--0--x--0--|

Db|-----------|--0--0--x--0--0--x--0--0--x-----------0--0--x--0--0--x--0--|

 

GUITAR 1:

 

Eb|--------------|------------------------------------------------|

Bb|--15----------|------------------------------------------------|

Gb|------12--14--|--10--10----10--10----10--10----10--10------12--|

Db|--------------|----------------------------------------12------|

Ab|--------------|------------------------------------------------|

Db|--------------|------------------------------------------------|

 

GUITAR 2:

 

Eb|-----------|--------------------------------------|

Bb|-----------|--------------------------------------|

Gb|-----------|--------------------------------------|

Db|-----------|--0--0--x--0--0--x--0--0--x-----------|

Ab|--0--3--5--|--0--0--x--0--0--x--0--0--x--0--3--5--|

Db|-----------|--0--0--x--0--0--x--0--0--x-----------|

 

GUITAR 1:

Eb|------------------------------------------------|

Bb|------------------------------------------------|

Gb|--10--10----10--10----10--10----10--10------12--|

Db|----------------------------------------12------|

Ab|------------------------------------------------|

Db|------------------------------------------------|

 

GUITAR 2:

Eb|--------------------------------------|

Bb|--------------------------------------|

Gb|--------------------------------------|

Db|--0--0--x--0--0--x--0--0--x-----------|

Ab|--0--0--x--0--0--x--0--0--x--0--3--5--|

Db|--0--0--x--0--0--x--0--0--x-----------|

 

GUITAR 1:

 

Eb|------------------------------------------------|------------------------------------------------|

Bb|------------------------------------------------|------------------------------------------------|

Gb|--10--10----10--10----10--10----10--10------12--|--10--10----10--10----10--10----10--10------12--|

Db|----------------------------------------12------|----------------------------------------12------|

Ab|------------------------------------------------|------------------------------------------------|

Db|------------------------------------------------|------------------------------------------------|

 

GUITAR 2:

 

Eb|-----|-------------------------------|

Bb|-----|-------------------------------|

Gb|--3--|---------5---------------------|

Db|--3--|--5------5---------------0--0--|

Ab|--1--|--5------3------0--3--5--0--0--|

Db|-----|--5----------------------0--0--|

 

 

Verse/Estrofa:

 

GUITAR 3:

 

Eb|---------------------------------------------------------------|

Bb|--6--6---------------------6-----6-----6-----8--6--6-----------|

Gb|----------------5-------------7-----7-----7--------------------|

Db|----------7--7-----7----7-----------------------------7--8--7--|

Ab|---------------------------------------------------------------|

Db|---------------------------------------------------------------|

 

GUITAR 1:

 

Eb|------------------------------------------------|------------------------------------------------|

Bb|------------------------------------------------|------------------------------------------------|

Gb|--10--10----10--10----10--10----10--10------12--|--10--10----10--10----10--10----10--10------12--|

Db|----------------------------------------12------|----------------------------------------12------|

Ab|------------------------------------------------|------------------------------------------------|

Db|------------------------------------------------|------------------------------------------------|

 

GUITAR 2:

 

Eb|-----|-----|

Bb|-----|-----|

Gb|--3--|--3--|

Db|--3--|--3--|

Ab|--1--|--1--|

Db|-----|-----|

 

GUITAR 3:

 

Eb|-------------------------|--------------------------|

Bb|--6--6-------------------|--------------------------|

Gb|----------------------5--|--7--5--------------------|

Db|----------7--7--8--7-----|--------8--8--7--8--7--7--|

Ab|-------------------------|--------------------------|

Db|-------------------------|--------------------------|

In My World - Tron544
00:00 / 00:00
DONATE%20BUTTON%20(EN)_edited.png

Pre-Chorus/Pre-Estribillo:

 

GUITAR 1:

 

Eb|--15-p-13-h-15-p-13-h-15-p-13--|--15-p-13-h-15-p-13-h-15-p-13--|

Bb|-------------------------------|-------------------------------|

Gb|-------------------------------|-------------------------------|

Db|-------------------------------|-------------------------------|

Ab|-------------------------------|-------------------------------|

Db|-------------------------------|-------------------------------|

 

GUITAR 2:

 

Eb|-----------------------|-----------------------------------|

Bb|-----------------------|-----------------------------------|

Gb|-----------5-----------|-----------------------------------|

Db|-----5--7-----5--5-----|-----5-----5-----5-----8--7--5-----|

Ab|--8-----------------8--|--8-----8-----8-----8-----------8--|

Db|-----------------------|-----------------------------------|

 

GUITAR 1:

 

Eb|--15-p-13-h-15-p-13-h-15-p-13--|--12-p-10-h-12-p-10-h-12-p-10--|

Bb|-------------------------------|-------------------------------|

Gb|-------------------------------|-------------------------------|

Db|-------------------------------|-------------------------------|

Ab|-------------------------------|-------------------------------|

Db|-------------------------------|-------------------------------|

 

GUITAR 2:

 

Eb|-------------------------------------|-----|

Bb|-------------------------------------|-----|

Gb|-------------------------------------|-----|

Db|-----------------7-b--7--5--7--7--5--|-----|

Ab|--5--8--5--8--5----------------------|--7--|

Db|-------------------------------------|-----|

 

 

Chorus/Estribillo: x2

 

GUITAR 1:

 

Eb|--------------------------|--------------------------|

Bb|--------------------------|--------------------------|

Gb|---------3-------------5--|---------3----------------|

Db|--0------3------3------5--|--0------3------3------5--|

Ab|--0------1------3------3--|--0------1------3------5--|

Db|--0-------------3---------|--0-------------3------5--|

 

GUITAR 2:

 

Eb|--5-----5-----6--5-----------5-----5-----6--5-----8--6--5--------------5-------5--6-----------------5--|

Bb|-----8-----8--------6-----------8-----8--------6-----------8--6--8--6-------6--------8--6--8--6--8-----|

Gb|-----------------------5--5----------------------------------------------------------------------------|

Db|-------------------------------------------------------------------------------------------------------|

Ab|-------------------------------------------------------------------------------------------------------|

Db|-------------------------------------------------------------------------------------------------------|

 

GUITAR 1:

 

Eb|--------------------------|

Bb|--------------------------|

Gb|--3------5----------------|

Db|--3------5------0------3--|

Ab|--1------3------0------3--|

Db|----------------0------3--|

 

GUITAR 2:

 

Eb|----------------5-----5------------5--8-----------------6--5-----|

Bb|--8--6----6--8-----8---------6--8--------8--8--8--8--8--------6--|

Gb|-----------------------------------------------------------------|

Db|-----------------------------------------------------------------|

Ab|-----------------------------------------------------------------|

Db|-----------------------------------------------------------------|

 

GUITAR 1:

 

Eb|--------------------------|

Bb|--------------------------|

Gb|--3------3------5------6--|

Db|--3------3------5------6--|

Ab|--1------1------3------4--|

Db|--------------------------|

 

GUITAR 2:

 

Eb|--5-----5-----6--5--------5---------6--5--------------|

Bb|-----8-----8--------6--------7------------6--5--5--6--|

Gb|-----------------------5------------------------------|

Db|------------------------------------------------------|

Ab|------------------------------------------------------|

Db|------------------------------------------------------|

 

 

Outro: 

 

GUITAR 3:

 

Eb|-------------------------------------------|

Bb|-------------------------------------------|

Gb|--10--10--10--10--10--10---10--10------12--|

Db|-----------------------------------12------|

Ab|-------------------------------------------|

Db|-------------------------------------------|

 

GUITAR 1:

 

Eb|----------------------|-----------------------------------------------|

Bb|--6--6----------------|-----6-----6-----6-----6-----8--6--6-----------|

Gb|----------------5-----|--------7-----7-----7-----6--------------------|

Db|----------7--7-----7--|--7-----------------------------------7--8--7--|

Ab|----------------------|-----------------------------------------------|

Db|----------------------|-----------------------------------------------|

 

GUITAR 2:

 

Eb|--------------------------------------|--------------------------------------|

Bb|--------------------------------------|--------------------------------------|

Gb|--------------------------------------|--------------------------------------|

Db|--x--x--0--x--x--0--x--x--0--x--x--0--|--x--x--0--x--x--0--x--x--0--x--x--0--|

Ab|--x--x--0--x--x--0--x--x--0--x--x--0--|--x--x--0--x--x--0--x--x--0--x--x--0--|

Db|--x--x--0--x--x--0--x--x--0--x--x--0--|--x--x--0--x--x--0--x--x--0--x--x--0--|

 

GUITAR 3:

 

Eb|-------------------------------------------|-------------------------------------------|

Bb|-------------------------------------------|-------------------------------------------|

Gb|--10--10--10--10--10--10---10--10------12--|--10--10--10--10--10--10---10--10------12--|

Db|-----------------------------------12------|-----------------------------------12------|

Ab|-------------------------------------------|-------------------------------------------|

Db|-------------------------------------------|-------------------------------------------|

 

GUITAR 1:

 

Eb|----------------------------|--------------------------|

Bb|-----6--6-------------------|--------------------------|

Gb|-------------------------5--|--7--5--------------------|

Db|--7----------7--7--8--7-----|--------8--8--7--8--7--7--|

Ab|----------------------------|--------------------------|

Db|----------------------------|--------------------------|

 

GUITAR 2:

 

Eb|------------|

Bb|------------|

Gb|--3---------|

Db|--3------5--|

Ab|--1------5--|

Db|---------5--|

 

GUITAR 3:

 

Eb|-------------------------------------------|

Bb|-------------------------------------------|

Gb|--10--10--10--10--10--10---10--10------12--|

Db|-----------------------------------12------|

Ab|-------------------------------------------|

Db|-------------------------------------------|

©2015 by Fefe - Tron544

Sigueme en:

  • YouTube - White Circle
  • Facebook - White Circle
  • Instagram - White Circle
  • Twitter - White Circle
This site was designed with the
.com
website builder. Create your website today.
Start Now