~ I'M JUST YOUR PROBLEM ~

TABLATURAS ~ By Fefe - Tron544

 

Intro:

 

BASS:

 

G|------------------------------------|
D|------------------------------------|
A|----------2----2--3----3------------|
E|--0----0------------------3---3--2--|

 

GUITAR:

 

e|--------------------------------------------------------|
B|--------------------------------------------------------|
G|-----7-------------------------------------------7------|
D|--9-----9--7--7-/-9---------------7------------------9--|
A|----------------------10--10--10-----10--10--10---------|
E|--------------------------------------------------------|

 

BASS:

 

G|-----------------------------------|
D|-----------------------------------|
A|----------2----2--10-/-12--10---9--|

E|--0----0---------------------------|

 

GUITAR:

 

e|---------------------------------------------------------|
B|---------------------------------------------------------|
G|--9-p-7--------------------------------------------7-----|
D|---------9------7-/-9---------------7-----------------9--|
A|------------10----------10--10--10-----10--10--10--------|
E|---------------------------------------------------------|

 

BASS:

 

G|-------------------------------------------------------------------------------|
D|-------------------------------------------------------------------------------|
A|--7----7--2----2--3----3--5----5----------2----2--3----------------------------|
E|----------------------------------0----0--------------3--3--3--3--3--3--3-/-\--|

 

GUITAR:

 

e|---------------------------------------------------------------|
B|--------------8--7---------------------------------------------|
G|---------------------------------------------------------------|
D|--------------------9---7------7-----------7-/-9---------------|
A|--10--10--10---------------10-----10--10-----------10--10--10--|
E|---------------------------------------------------------------|

 


Verse/Estrofa:

 

BASS:

 

G|------------------------------------|
D|------------------------------------|
A|----------2----2--3----3------------|
E|--0----0------------------3---3--2--|

 

GUITAR:

 

e|----------------------------------------------------------------|
B|---------------------------------------8--8--7--7---------------|
G|---------------------------------------------------9--7---7-----|
D|--7--9--7------7--9--7------7--9-----------------------------9--|
A|-----------10-----------10---------10---------------------------|
E|----------------------------------------------------------------|

 

BASS:

 

G|------------------------------------|
D|------------------------------------|
A|----------2----2--3----3------------|
E|--0----0------------------3---3--2--|

 

GUITAR:

 

e|--------------------------------------------------------------------|
B|---------------------------------------8--8--7--7-------------------|
G|---------------------------------------------------9--7---7---------|
D|--7--9--7------7--9--7------7--9-----------------------------10--9--|
A|-----------10-----------10---------10-------------------------------|
E|--------------------------------------------------------------------|

 

BASS:

 

G|----------------------------------|
D|----------------------------------|
A|----------2----2--3----3--5----5--|
E|--0----0--------------------------|

 

GUITAR:

 

e|-------------------------------------------------------|
B|-------------------------------------------------------|
G|--7--------------9--7--------------------------7-------|
D|-----9--9--9--9--------9---7------7-----------------9--|
A|------------------------------10-----10---10-----------|
E|-------------------------------------------------------|

 

BASS:

 

G|----------------------------------|
D|----------------------------------|
A|--7----7--2----2--3----3--5----5--|
E|----------------------------------|

 

GUITAR:

 

e|-------------------------------------------------------------------------|
B|---------------------------------------------8--8--7--7------------------|
G|---------------------------------------------------------9--7---7--7-----|
D|------7--9------7--9------7--9----------------------------------------9--|
A|--10--------10--------10---------10--10--10------------------------------|
E|-------------------------------------------------------------------------|

 


Chorus/Estrofa:

 

BASS:

 

G|----------------------------------------------------------------------------------------------------|
D|------------------------------------------------9---------------------------------------------------|
A|--3--3--3--3--3--3--3--3---6--6--6--6--6--6--6-----7--7--7--7--7--7--7--7---0--0--0--2--3--3--3--3--|
E|----------------------------------------------------------------------------------------------------|

 

GUITAR:

 

e|-------------------------------------------------------------------------------|
B|--7-h-8-------7-h-8---7-------------7-h-8--------------------------------------|
G|----------9---------------------------------9----------------------------------|
D|---------------------------5-/-7----------------7-/-9---7----------------------|
A|-------------------------------------------------------------10----10--10--10--|
E|-------------------------------------------------------------------------------|

 

BASS:

 

G|-----------------------------------------------------------------------------------------------------|
D|-----------------------------------------------------------------------------------------------------|
A|--3--3--3--3--3--3--3--3---6--6--6--6--6--6--6--6---7--7--7--7--7--7--7--7---0--0--0--2--3--3--3--3--|
E|-----------------------------------------------------------------------------------------------------|

 

GUITAR:

 

e|---------------------------------------------------------------------------|
B|--7-h-8-------7-h-8---7------------------7-h-8-----------------------------|
G|----------9--------------9-----------------------9-------------------------|
D|------------------------------7-/-9--7---------------7-/-9---7-------------|
A|------------------------------------------------------------------10---10--|
E|---------------------------------------------------------------------------|

 


Bridge/Puente:

 

BASS:

 

G|------------------------------------------|
D|------------------------------------------|
A|--0----0--2----2--3--3--3--3--5--5--5--5--|
E|------------------------------------------|

 

GUITAR:

 

e|---------------------------------------------------------------------------|
B|---------------------------------------------------------------------------|
G|-----7-----------7------------------------------------------7--7-----------|
D|--9-----9--7--9-----9--7--9-----------7------7---------------------9-------|
A|------------------------------10--10-----10-----10--10--10-------------10--|
E|---------------------------------------------------------------------------|

 

BASS:

 

G|------------------------------------------|
D|------------------------------------------|
A|--0----0--2----2--3--3--3--3--5--5--5--5--|
E|------------------------------------------|

 

GUITAR:

 

e|----------------------------------------------------------------------|
B|----------------------------------------------------------------------|
G|-----7-----------7------------------------------------------7--7------|
D|--9-----9--7--9-----9--7--9-----------7------7---------------------9--|
A|------------------------------10--10-----10-----10--10--10------------|
E|----------------------------------------------------------------------|

 

BASS:

 

G|------------------------------------------|
D|------------------------------------------|
A|--0----0--2----2--3--3--3--3--5--5--5--5--|
E|------------------------------------------|

 

GUITAR:

 

e|-----------------------------------------------------------------|
B|--8--8--7--------------------------------------------------------|
G|------------9--7-----------------------------------7--7----------|
D|------------------9---7------7------7---------------------9------|
A|-------------------------10-----10-----10--10--10------------10--|
E|-----------------------------------------------------------------|

 

BASS:

 

G|------------------------------------------|
D|------------------------------------------|
A|--0----0--2----2--3--3--3--3--5--5--5--5--|
E|------------------------------------------|

 

GUITAR:

 

e|----------------------------------------------------------------------|
B|----------------------------------------------------------------------|
G|-----7-----------7------------------------------------------7--7------|
D|--9-----9--7--9-----9--7--9-----------7------7---------------------9--|
A|------------------------------10--10-----10-----10--10--10------------|
E|----------------------------------------------------------------------|

 


Outro:

 

BASS:

 

G|------------------------------------------------------------------------------------------------|
D|------------------------------------------------------------------------------------------------|
A|--3--3--3--3--3--3--3--3---6--6--6--6--6--6--6--6---7--7--7--7--7--7--7--7---0--0--0--2--3---3--|
E|------------------------------------------------------------------------------------------------|

 

GUITAR:

 

e|-----------------------------------------------------------------|
B|--7-h-8-------7-h-8---7-------------7-h-8------------------------|
G|----------9---------------------------------9--------------------|
D|---------------------------5-/-7----------------7-/-9---7--------|
A|-------------------------------------------------------------10--|
E|-----------------------------------------------------------------|

 

BASS:

 

G|--------------------------|
D|--------------------------|
A|--0------2------3---------|
E|-----------------------3--|

 

 

I'm Just Your Problem - Tron544
00:00 / 00:00

©2019 by Fefe - Tron544

Sigueme en:

  • YouTube - White Circle
  • Facebook - White Circle
  • Instagram - White Circle
  • Twitter - White Circle
This site was designed with the
.com
website builder. Create your website today.
Start Now