IGNITE

SWORD ART ONLINE II

TABS ~ By Fefe (Tron544)

 

Intro:

 

GUITAR 2:

 

e|------------------------------------------------------------------------|

B|------------------------------------------------------------------------|

G|--17--17--17--17--16--14--16-/-17-------------------17--16--14----------|

D|------------------------------------15--15--15--15--------------17--15--|

A|------------------------------------------------------------------------|

E|------------------------------------------------------------------------|

 

GUITAR 1:

 

e|------------------|

B|------------------|

G|------------------|

D|--(7)-x--x--7--7--|

A|--(7)-x--x--7--7--|

E|--(5)-x--x--5--5--|

 

GUITAR 2:

 

e|--------------------------------------------|

B|------15------15---17--15-------------------|

G|---------------------------17--16--16-/-17--|

D|--17------17--------------------------------|

A|--------------------------------------------|

E|--------------------------------------------|

 

GUITAR 1:

 

e|--------------------------------------------------------------------|

B|--------------------------------------------------------------------|

G|----------------------------------7--7--7--7--7---6--6--6--6--6--6--|

D|--3--3--3--3--3---5--5--5--5--5---7--7--7--7--7---7--7--7--7--7--7--|

A|--3--3--3--3--3---5--5--5--5--5---5--5--5--5--5---4--4--4--4--4--4--|

E|--1--1--1--1--1---3--3--3--3--3-------------------------------------|

 

GUITAR 2:

 

e|------------------------------------------------------------------|

B|-----------------------15-/-17--15--------------------17--15------|

G|--14--16--17-------------------------17--16--17--14-----------18--|

D|---------------17--15---------------------------------------------|

A|------------------------------------------------------------------|

E|------------------------------------------------------------------|

 

 

Verse/Estrofa:

 

GUITAR 2:

 

e|--------------|----------------------------------------------------|

B|--------------|----------------------------------------------------|

G|------17--16--|-------------------------------14-------------------|

D|--14----------|--14-----------------------17-------------------14--|

A|--------------|-------17--15--17--15--17----------17--17---17------|

E|--------------|----------------------------------------------------|

 

e|------------------------------------------------------------|

B|------------------------------------------------------------|

G|------------------14--16----------------------------17--16--|

D|--15--14--15--17----------17--15--15--14--14----14----------|

A|------------------------------------------------------------|

E|------------------------------------------------------------|

 

GUITAR 1:

 

e|---------------------------------------------------------------------------|

B|---------------------------------------------------------------------------|

G|---------------------------------------7--7--7--7--7--7--7--7--7--7--7--7--|

D|--7--7--7--7--7--7--7--7--7--7--7--7---7--7--7--7--7--7--7--7--7--7--7--7--|

A|--7--7--7--7--7--7--7--7--7--7--7--7---5--5--5--5--5--5--5--5--5--5--5--5--|

E|--5--5--5--5--5--5--5--5--5--5--5--5---------------------------------------|

 

GUITAR 2:

 

e|----------------------------------------------------|

B|----------------------------------------------------|

G|-------------------------------14-------------------|

D|--14-----------------------17-------------------14--|

A|-------17--15--17--15--17----------17--17---17------|

E|----------------------------------------------------|

 

GUITAR 1:

 

e|------------------------------------------------------------------|

B|------------------------------------------------------------------|

G|------------------------------------------------------------------|

D|--3--3--3--3--3--3---5--5--5--5--5---5--7---5--7------------------|

A|--3--3--3--3--3--3---5--5--5--5--5---5--7---5--7------3--2--------|

E|--1--1--1--1--1--1---3--3--3--3--3---3--5---3--5---3--------3--0--|

 

GUITAR 2:

 

e|--------------------------------------------------|

B|--------------------------------------------------|

G|--------------------------------------------------|

D|--15--14--15--17--15--14--------------------------|

A|--------------------------17--15--14--15------15--|

E|------------------------------------------17------|

IGNITE - Tron544
00:00 / 00:00
DONATE%20BUTTON%20(EN)_edited.png

Pre-Chorus/Pre-Estribillo:

 

GUITAR 1:

 

e|-----------------------------------------------------------------------------------|

B|-----------------------------------------------------------------------------------|

G|--7--7---7--7---9--9---9--9---#--#--#--#---8--8---8--8---7--7---7--7---#--#--#--#--|

D|--7--7---7--7---9--9---9--9---#--#--#--#---8--8---8--8---7--7---7--7---#--#--#--#--|

A|--5--5---5--5---7--7---7--7---#--#--#--#---6--6---6--6---5--5---5--5---#--#--#--#--|

E|-----------------------------------------------------------------------------------|

 

GUITAR 2:

 

e|-------------------------------------------------------------------|

B|-------------------------------------------------------------------|

G|-------------------------------------------------------------------|

D|--------------------------14--14---17--17--17--17--15--17--15--15--|

A|--17--17--17--17--15--17-------------------------------------------|

E|-------------------------------------------------------------------|

 

GUITAR 1:

 

e|-------------------------------------------|

B|-----------------------------5-h-6-p-5-----|

G|--5--x--x--5--x--5--x--x--x-------------5--|

D|--5--x--x--5--x--5--x--x--x----------------|

A|--3--x--x--3--x--3--x--x--x----------------|

E|-------------------------------------------|

 

GUITAR 2:

 

e|-------------------------------|

B|-------------------------------|

G|-------------------------------|

D|--15--15--14--15--14-----------|

A|----------------------15---15--|

E|-------------------------------|

 

GUITAR 1:

 

e|------------------------------------------------------------------|

B|----------------------------------------5-h-6-p-5-----------------|

G|--7--x--x--7--x---9--x--x--x--x--x--x--------------7--5--4--------|

D|--7--x--x--7--x---9--x--x--x--x--x--x-----------------------7--6--|

A|--5--x--x--5--x---7--x--x--x--x--x--x-----------------------------|

E|------------------------------------------------------------------|

 

GUITAR 2:

 

e|---------------------------------------------|

B|---------------------------------------------|

G|---------------14--13--14--14-/-16--14-/-16--|

D|--17--16--16---------------------------------|

A|---------------------------------------------|

E|---------------------------------------------|

 

 

Chorus/Estribillo:

 

GUITAR 1:

 

e|----------------------------------------------------------------------------------|

B|----------------------------------------------------------------------------------|

G|----------------------------------------------------------------------------------|

D|--#--#---3--3--3--3--3--3--3--3--3--3--3--3---5--5--5--5--5--5--5--5--5--5--5--5--|

A|--#--#---3--3--3--3--3--3--3--3--3--3--3--3---5--5--5--5--5--5--5--5--5--5--5--5--|

E|--#--#---1--1--1--1--1--1--1--1--1--1--1--1---3--3--3--3--3--3--3--3--3--3--3--3--|

 

GUITAR 2:

 

e|------------------------------------------------------------------------|

B|------------------------------------------------------------------------|

G|--17--17--17--17--16--14--16-/-17-------------------17--16--14----------|

D|------------------------------------15--15--15--15--------------17--15--|

A|------------------------------------------------------------------------|

E|------------------------------------------------------------------------|

 

GUITAR 1:

 

e|---------------------------------------------------------------------------|

B|---------------------------------------------------------------------------|

G|---------------------------------------------------------------------------|

D|--2--2--2--2--2--2--2--2--2--2--2--2---7--7--7--7--7--7--7--7--7--7--7--7--|

A|--2--2--2--2--2--2--2--2--2--2--2--2---7--7--7--7--7--7--7--7--7--7--7--7--|

E|--0--0--0--0--0--0--0--0--0--0--0--0---5--5--5--5--5--5--5--5--5--5--5--5--|

 

GUITAR 2:

 

e|---------------------------------------------------------------------|

B|------15------15---17--15--------------------------------------------|

G|---------------------------17--16--16-/-17---17--17--17--17--16--14--|

D|--17------17---------------------------------------------------------|

A|---------------------------------------------------------------------|

E|---------------------------------------------------------------------|

 

GUITAR 1:

 

e|---------------------------------------------------------------------------|

B|---------------------------------------------------------------------------|

G|---------------------------------------------------------------------------|

D|--3--3--3--3--3--3--3--3--3--3--3--3---5--5--5--5--5--5--5--5--5--5--5--5--|

A|--3--3--3--3--3--3--3--3--3--3--3--3---5--5--5--5--5--5--5--5--5--5--5--5--|

E|--1--1--1--1--1--1--1--1--1--1--1--1---3--3--3--3--3--3--3--3--3--3--3--3--|

 

GUITAR 2:

 

e|------------------------------------------------|

B|------------------------------------------------|

G|--16-/-17-------------------17--16--14----------|

D|------------15--15--15--15--------------17--15--|

A|------------------------------------------------|

E|------------------------------------------------|

 

GUITAR 1:

 

e|----------------------------------------------------------------------------|

B|----------------------------------------------------------------------------|

G|-----------------------------------------------------------9--7--9--9-(PH)--|

D|--2--2--2--2--2--2--2--2--2---6--6--6---7--7--7--7--7--7--------------------|

A|--2--2--2--2--2--2--2--2--2---7--7--7---7--7--7--7--7--7--------------------|

E|--0--0--0--0--0--0--0--0--0---4--4--4---5--5--5--5--5--5--------------------|

 

GUITAR 2:

 

e|--------------------------------------------|

B|------15------15---17--15-------------------|

G|---------------------------17--16--16-/-17--|

D|--17------17--------------------------------|

A|--------------------------------------------|

E|--------------------------------------------|

 

GUITAR 1:

 

e|---------------------------------------------------------------------------------------------------|

B|---------------------------------------------------------------------------------------------------|

G|---------------------------------------------------------------------------------------------------|

D|--3--x--x--3--x--x--3--x--x--3--x--x--3--x--3--x---5--x--x--5--x--x--5--x--x--5--x--x--5--x--5--x--|

A|--3--x--x--3--x--x--3--x--x--3--x--x--3--x--3--x---5--x--x--5--x--x--5--x--x--5--x--x--5--x--5--x--|

E|--1--x--x--1--x--x--1--x--x--1--x--x--1--x--1--x---3--x--x--3--x--x--3--x--x--3--x--x--3--x--3--x--|

 

GUITAR 2:

 

e|----------------------------------------------------------------------------|

B|--------------------------17--17---------------------------17--17-----------|

G|--14--17--17--17--16--14-----------14--17--17--17--16--14-----------16--17--|

D|----------------------------------------------------------------------------|

A|----------------------------------------------------------------------------|

E|----------------------------------------------------------------------------|

 

GUITAR 1:

 

e|---------------------------------------------------------------------------------------------------|

B|---------------------------------------------------------------------------------------------------|

G|---------------------------------------------------------------------------------------------------|

D|--7--x--x--7--x--x--7--x--x--7--x--x--7--x--7--x---7--x--x--7--x--x--7--x--x--7--x--x--7--7--7--7--|

A|--7--x--x--7--x--x--7--x--x--7--x--x--7--x--7--x---7--x--x--7--x--x--7--x--x--7--x--x--7--7--7--7--|

E|--5--x--x--5--x--x--5--x--x--5--x--x--5--x--5--x---5--x--x--5--x--x--5--x--x--5--x--x--5--5--5--5--|

 

GUITAR 2:

 

e|----------------------|

B|--------------17--14--|

G|--16------14----------|

D|----------------------|

A|----------------------|

E|----------------------|

©2015 by Fefe - Tron544

Sigueme en:

  • YouTube - White Circle
  • Facebook - White Circle
  • Instagram - White Circle
  • Twitter - White Circle
This site was designed with the
.com
website builder. Create your website today.
Start Now