~ ICHIBAN NO TAKARAMONO ~

ACORDES ~ Click aquí para Descargarlas!

 

* Necesitas del programa "GUITAR PRO 5"
          ~> DESCARGALO AQUI! <~

 

 

TABLATURAS ~ By Fefe - Tron544

 

Verse/Estrofa:

 

e|----------------------------------------------------------|

B|----------------------------------------------------------|

G|------------------------------------------------9--10--9--|

D|--7--8--10--8--10--7-----------7--8--10--8--10------------|

A|----------------------10--8-------------------------------|

E|----------------------------------------------------------|

 

e|-----------------------------------------|

B|-----------------------------------------|

G|-----------------------------------------|

D|--7--8--10--8--10--7------------------7--|

A|----------------------10--8----8--10-----|

E|-----------------------------------------|

 

 

Pre-Chorus/Pre-Estribillo:

 

e|--------------------------------------------------------------------|

B|-------------------------------------8--10--11--10------------------|

G|---------------7------9--10------10-----------------10------10--10--|

D|--7--8--7--10-----10---------10-------------------------10----------|

A|--------------------------------------------------------------------|

E|--------------------------------------------------------------------|

 

e|----------8----------------------------------8------------------------|--------------|

B|--10--11-----8-----------------------10--11-----8-------------10--11--|--10--11--13--|

G|----------------10--7------10--10------------------10--8--10----------|--------------|

D|-----------------------10---------------------------------------------|--------------|

A|----------------------------------------------------------------------|--------------|

E|----------------------------------------------------------------------|--------------|

 

 

Chorus/Estribillo:

 

e|-------------------------------------------------------------------|

B|--------------------------12--14---------------------------12--14--|

G|--14--13--14----------14-----------14--13--14----------14----------|

D|--------------14--12---------------------------14--12--------------|

A|-------------------------------------------------------------------|

E|-------------------------------------------------------------------|

 

e|-----------------------------------------------------------------------|

B|--------------------------12--14-------12------------------------------|

G|--14--13--14----------14-----------14------14--------------------------|

D|--------------14--12---------------------------12--11------------------|

A|-------------------------------------------------------14--14--12--12--|

E|-----------------------------------------------------------------------|

 

e|-----------------------------------------------------------------------|

B|--------------------------12--14---------------------------12--14------|

G|--14--13--14----------14-----------14--13--14----------14----------14--|

D|--------------14--12---------------------------14--12------------------|

A|-----------------------------------------------------------------------|

E|-----------------------------------------------------------------------|

 

e|-----------------------------------------------------------------------|

B|--------------------------12--14-------12------------------------------|

G|--14--13--14----------14-----------14------14--------------------------|

D|--------------14--12---------------------------12--11------------------|

A|-------------------------------------------------------14--14--12--12--|

E|-----------------------------------------------------------------------|

 

e|-------------------------------------------------------------------|

B|--------------------------13--15---------------------------13--15--|

G|--15--14--15----------15-----------15--14--15----------15----------|

D|--------------15--13---------------------------15--13--------------|

A|-------------------------------------------------------------------|

E|-------------------------------------------------------------------|

 

e|-----------------------------------------------------------------------|

B|--------------------------13--15-------13------------------------------|

G|--15--14--15----------15-----------15------15--------------------------|

D|--------------15--13---------------------------13--12------------------|

A|-------------------------------------------------------15--15--13--13--|

E|-----------------------------------------------------------------------|

 

e|-----------------------------------------------------------------------|

B|--------------------------13--15---------------------------13--15------|

G|--15--14--15----------15-----------15--14--15----------15----------15--|

D|--------------15--13---------------------------15--13------------------|

A|-----------------------------------------------------------------------|

E|-----------------------------------------------------------------------|

 

e|-----------------------------------------------------------------------|

B|--------------------------13--15-------13------------------------------|

G|--15--14--15----------15-----------15------15--------------------------|

D|--------------15--13---------------------------13--12------------------|

A|-------------------------------------------------------15--15--13--13--|

E|-----------------------------------------------------------------------|

 

 

Outro:

 

e|---------------------------------------------------|------------------------------------------------|

B|---------------------------------------------------|------------------------------------------------|

G|--------------------5--7---------------------5--7--|--------------------5--7------5-----------------|

D|--8--7--8--------8---------8--7--8--------8--------|--8--7--8--------8---------8-----8--------------|

A|-----------6--8---------------------6--8-----------|-----------6--8---------------------6--5--------|

E|---------------------------------------------------|------------------------------------------8--6--|

 

e|-------------------------------------------------------------------|

B|--------------------------13--15---------------------------13--15--|

G|--15--14--15----------15-----------15--14--15----------15----------|

D|--------------15--13---------------------------15--13--------------|

A|-------------------------------------------------------------------|

E|-------------------------------------------------------------------|

 

e|-----------------------------------------------------------------------|

B|--------------------------13--15-------13------------------------------|

G|--15--14--15----------15-----------15------15--------------------------|

D|--------------15--13---------------------------13--12------------------|

A|-------------------------------------------------------15--15--13--13--|

E|-----------------------------------------------------------------------|

 

e|--------------------------------------------------------------------|

B|--13--------------------------------13------------------------------|

G|------15--------------------------------15--------------------------|

D|----------13--12----------------------------13--12------------------|

A|------------------15--15--13--13--------------------15--15--13--13--|

E|--------------------------------------------------------------------|

Ichiban no Takaramono - Tron544
00:00 / 00:00

©2019 by Fefe - Tron544

Sigueme en:

  • YouTube - White Circle
  • Facebook - White Circle
  • Instagram - White Circle
  • Twitter - White Circle
This site was designed with the
.com
website builder. Create your website today.
Start Now