I WISH

DIGIMON ADVENTURE 01

TABS ~ By Fefe (Tron544)

 

Intro:

 

e|--14------12------12------12----------14------12------12------12------|

B|------12------10------10------10----------12------10------10------10--|

G|----------------------------------------------------------------------|

D|----------------------------------------------------------------------|

A|----------------------------------------------------------------------|

E|----------------------------------------------------------------------|

 

e|----------------------------------------------------11--12------|

B|--14--14--14--14--12------12-/-14---14--14--14--14----------12--|

G|----------------------14----------------------------------------|

D|----------------------------------------------------------------|

A|----------------------------------------------------------------|

E|----------------------------------------------------------------|

 

e|----------------------------------------|

B|--12--12--14----------------------------|

G|--------------13--11-/-13---13--11--13--|

D|----------------------------------------|

A|----------------------------------------|

E|----------------------------------------|

 

e|----------------------------------------------------------------------------------------------------------|

B|----------------------------------12-/-14--12-/-14--14-\-12---12------------------------------------------|

G|--14--13--11------14--13--11--------------------------------------14--13--11-/-13---11-/-13--11-/-13--11--|

D|--------------14--------------14--------------------------------------------------------------------------|

A|----------------------------------------------------------------------------------------------------------|

E|----------------------------------------------------------------------------------------------------------|

 

 

Verse/Estrofa:

 

e|----------------------------------------------------------------------------------------------------------|

B|--12-------------------------------------------------------------------------12---------------------------|

G|------14--13--13--13---13--13--13--11--13--11-------11--13--13--13--13--13--------11--11--11--------------|

D|------------------------------------------------14---------------------------------------------14--13--14-|

A|----------------------------------------------------------------------------------------------------------|

E|----------------------------------------------------------------------------------------------------------|

 

e|------------------------------------------------------------|

B|------------------------------------------------------------|

G|----------------------------14--13--11------11------11------|

D|--14--13--14----14--14--14--------------14------14------14--|

A|------------------------------------------------------------|

E|------------------------------------------------------------|

I Wish - Tron544
00:00 / 00:00
DONATE%20BUTTON%20(EN)_edited.png

Pre-Chorus/Pre-Estribillo:

 

e|----------------------------------------------------------------------------|

B|--------------14---------------------------13-------------------------------|

G|--13--13--13------13--13--11--11---11--11------13--13--11--13---------------|

D|---------------------------------------------------------------14---14--14--|

A|----------------------------------------------------------------------------|

E|----------------------------------------------------------------------------|

 

e|-------------------------------------------------------------------------------|

B|---------------------------------------------------------------------------12--|

G|------------------11--13------------------11--13--14--14---14--14--13--14------|

D|--14--14--14--14----------14--14--14--14---------------------------------------|

A|-------------------------------------------------------------------------------|

E|-------------------------------------------------------------------------------|

 

 

Chorus/Estribillo:

 

e|----------------------------------------------------11------------------------------------|

B|--14--14--14--14--12------12-/-14---14--14--14--14----------12---12--12--14---------------|

G|----------------------14--------------------------------14-------------------13--11-/-13--|

D|------------------------------------------------------------------------------------------|

A|------------------------------------------------------------------------------------------|

E|------------------------------------------------------------------------------------------|

 

e|----------------------------------------------------------------|

B|--14--14--14--14--12------12-/-14---14--14--14--14--12------12--|

G|----------------------14--------------------------------14------|

D|----------------------------------------------------------------|

A|----------------------------------------------------------------|

E|----------------------------------------------------------------|

 

e|----------------------------------------------------11--12---------------------------------------------|

B|--14--14--14--14--12------12-/-14---14--14--14--14----------12---12--12--14----------------------------|

G|----------------------14-----------------------------------------------------13--11-/-13---13--11--13--|

D|-------------------------------------------------------------------------------------------------------|

A|-------------------------------------------------------------------------------------------------------|

E|-------------------------------------------------------------------------------------------------------|

 

e|----------------------------------------------------------------------------------------------------------|

B|----------------------------------12-/-14--12-/-14--14-\-12---12------------------------------------------|

G|--14--13--11------14--13--11--------------------------------------14--13--11-/-13----11-/-13--11-/-13--11-|

D|--------------14--------------14--------------------------------------------------------------------------|

A|----------------------------------------------------------------------------------------------------------|

E|----------------------------------------------------------------------------------------------------------|

©2015 by Fefe - Tron544

Sigueme en:

  • YouTube - White Circle
  • Facebook - White Circle
  • Instagram - White Circle
  • Twitter - White Circle
This site was designed with the
.com
website builder. Create your website today.
Start Now