~ I WANNA BE FAMOUS ~

TABLATURAS ~ By Fefe - Tron544

 

Intro:

 

e|---------------------------------------------|

B|---------------------------------------------|

G|---------------------------------------------|

D|--x--x--7--x--x--x--7---x--x--2--x--x--x--2--|

A|--x--x--7--x--x--x--7---x--x--2--x--x--x--2--|

E|--x--x--5--x--x--x--5---x--x--0--x--x--x--0--|

 

e|---------------------------------------------|

B|---------------------------------------------|

G|--x--x--4--x--x--x--4------------------------|

D|--x--x--4--x--x--x--4---x--x--2--x--x--x--2--|

A|--x--x--2--x--x--x--2---x--x--2--x--x--x--2--|

E|------------------------x--x--0--x--x--x--0--|

 

 

Verse/Estrofa:

 

GUITAR 1:

 

e|---------------------------------------------|---------------------------------------------|

B|---------------------------------------------|---------------------------------------------|

G|---------------------------------------------|--x--x--4--x--x--x--4------------------------|

D|--x--x--7--x--x--x--7---x--x--2--x--x--x--2--|--x--x--4--x--x--x--4---x--x--2--x--x--x--2--|

A|--x--x--7--x--x--x--7---x--x--2--x--x--x--2--|--x--x--2--x--x--x--2---x--x--2--x--x--x--2--|

E|--x--x--5--x--x--x--5---x--x--0--x--x--x--0--|------------------------x--x--0--x--x--x--0--|

 

GUITAR 2:

 

e|-----------------------------|---------------------|

B|-----------------------------|---------------------|

G|-----------------------------|---------------------|

D|--7--7--7--7--7--7--6--4-----|--4--4--4---6--6--6--|

A|--------------------------7--|---------------------|

E|-----------------------------|---------------------|

 

GUITAR 1:

 

e|---------------------------------------------|

B|---------------------------------------------|

G|---------------------------------------------|

D|--x--x--7--x--x--x--7---x--x--2--x--x--x--2--|

A|--x--x--7--x--x--x--7---x--x--2--x--x--x--2--|

E|--x--x--5--x--x--x--5---x--x--0--x--x--x--0--|

 

GUITAR 2:

 

e|--------------------------------|

B|--------------------------------|

G|--------------------------------|

D|--6--7--7--7--7--7--7--6--4-----|

A|-----------------------------7--|

E|--------------------------------|

 

GUITAR 1:

 

e|---------------------------------------------|-------------------|

B|---------------------------------------------|-------------------|

G|--x--x--4--x--x--x--4------------------------|---------4---------|

D|--x--x--4--x--x--x--4---x--x--2--x--x--x--2--|--7------4------2--|

A|--x--x--2--x--x--x--2---x--x--2--x--x--x--2--|--7------2------2--|

E|------------------------x--x--0--x--x--x--0--|--5-------------0--|

 

GUITAR 2:

 

e|------------------------------|----------------------|

B|------------------------------|----------------------|

G|------------------------------|----------------------|

D|-----4--4--4--4---4--6--6--6--|--7---7--7--9---6-----|

A|--7---------------------------|-------------------7--|

E|------------------------------|----------------------|

 

GUITAR 1:

 

e|---------------------------------------------|---------------------------------------------|

B|---------------------------------------------|---------------------------------------------|

G|---------------------------------------------|--x--x--4--x--x--x--4------------------------|

D|--x--x--7--x--x--x--7---x--x--2--x--x--x--2--|--x--x--4--x--x--x--4---x--x--2--x--x--x--2--|

A|--x--x--7--x--x--x--7---x--x--2--x--x--x--2--|--x--x--2--x--x--x--2---x--x--2--x--x--x--2--|

E|--x--x--5--x--x--x--5---x--x--0--x--x--x--0--|------------------------x--x--0--x--x--x--0--|

 

GUITAR 2:

 

e|-----------------------------|------------------------------|

B|-----------------------------|------------------------------|

G|-----------------------------|------------------------------|

D|--7--7--7--7--7--7--6--4-----|-----4--4--4--4---4--6--6--6--|

A|--------------------------7--|--7---------------------------|

E|-----------------------------|------------------------------|

 

GUITAR 1:

 

e|---------------------------------------------|

B|---------------------------------------------|

G|---------------------------------------------|

D|--x--x--7--x--x--x--7---x--x--2--x--x--x--2--|

A|--x--x--7--x--x--x--7---x--x--2--x--x--x--2--|

E|--x--x--5--x--x--x--5---x--x--0--x--x--x--0--|

 

GUITAR 2:

 

e|--------------------------------|

B|--------------------------------|

G|--------------------------------|

D|--6--7--7--7--7--7--7--6--6-----|

A|-----------------------------7--|

E|--------------------------------|

 

GUITAR 1:

 

e|---------------------------------------------|-------------------|

B|---------------------------------------------|-------------------|

G|--x--x--4--x--x--x--4------------------------|---------4---------|

D|--x--x--4--x--x--x--4---x--x--2--x--x--x--2--|--7------4------2--|

A|--x--x--2--x--x--x--2---x--x--2--x--x--x--2--|--7------2------2--|

E|------------------------x--x--0--x--x--x--0--|--5-------------0--|

 

GUITAR 2:

 

e|-----------------------|-------------------------|

B|-----------------------|-------------------------|

G|-----------------------|-------------------------|

D|-----6--6--6--6--6--6--|-----7---7--7--9---6-----|

A|--7--------------------|--7-------------------7--|

E|-----------------------|-------------------------|

 

 

Chorus/Estribillo:

 

GUITAR 1:

 

e|---------------------------------|---------------------------------|

B|---------------------------------|---------------------------------|

G|---------------------------------|--4---4---4---4------------------|

D|--2---2---2---2---7---7---7---7--|--4---4---4---4---2---2---2---2--|

A|--2---2---2---2---7---7---7---7--|--2---2---2---2---2---2---2---2--|

E|--0---0---0---0---5---5---5---5--|------------------0---0---0---0--|

 

GUITAR 2:

 

e|-------------------------------------|-------------------------|

B|----------------------------7--9-----|--7-------------7--------|

G|-----------------9----9--9--------9--|-------9--8--9-----8--9--|

D|--6--6--6--7--9----------------------|-------------------------|

A|-------------------------------------|-------------------------|

E|-------------------------------------|-------------------------|

 

GUITAR 3:

 

e|-------------------------------------|-------------------------|

B|----------------------------7--9-----|--7-------------7--------|

G|-----------------9----9--9--------9--|-------9--8--9-----8--9--|

D|--6--6--6--7--9----------------------|-------------------------|

A|-------------------------------------|-------------------------|

E|-------------------------------------|-------------------------|

 

GUITAR 1:

 

e|---------------------------------|---------------------------------|

B|---------------------------------|---------------------------------|

G|---------------------------------|--4---4---4---4------------------|

D|--2---2---2---2---7---7---7---7--|--4---4---4---4---2---2---2---2--|

A|--2---2---2---2---7---7---7---7--|--2---2---2---2---2---2---2---2--|

E|--0---0---0---0---5---5---5---5--|------------------0---0---0---0--|

 

GUITAR 2:

 

e|------------------------------------|------------------------|

B|------------------------------------|------------------------|

G|--13--13--11--9------13--13--11--9--|--11--11--9--11--13--9--|

D|------------------------------------|------------------------|

A|------------------------------------|------------------------|

E|------------------------------------|------------------------|

 

GUITAR 3:

 

e|-------------------------------------|-------------------------|

B|----------------------------7--9-----|--7-------------7--------|

G|-----------------9----9--9--------9--|-------9--8--9-----8--9--|

D|--6--6--6--7--9----------------------|-------------------------|

A|-------------------------------------|-------------------------|

E|-------------------------------------|-------------------------|

 

GUITAR 1:

 

e|---------------------------------|---------------------------------|

B|---------------------------------|---------------------------------|

G|---------------------------------|--4---4---4---4------------------|

D|--2---2---2---2---7---7---7---7--|--4---4---4---4---2---2---2---2--|

A|--2---2---2---2---7---7---7---7--|--2---2---2---2---2---2---2---2--|

E|--0---0---0---0---5---5---5---5--|------------------0---0---0---0--|

 

GUITAR 2:

 

e|------------------------------------|------------------------|

B|------------------------------------|------------------------|

G|--13--13--11--9------13--13--11--9--|--11--11--9--11--13--9--|

D|------------------------------------|------------------------|

A|------------------------------------|------------------------|

E|------------------------------------|------------------------|

 

GUITAR 3:

 

e|-------------------------------------|-------------------------|

B|----------------------------7--9-----|--7-------------7--------|

G|-----------------9----9--9--------9--|-------9--8--9-----8--9--|

D|--6--6--6--7--9----------------------|-------------------------|

A|-------------------------------------|-------------------------|

E|-------------------------------------|-------------------------|

 

 

Outro:

 

GUITAR 1:

 

e|---------------------------------|---------------------------------|

B|---------------------------------|---------------------------------|

G|---------------------------------|--4---4---4---4------------------|

D|--2---2---2---2---7---7---7---7--|--4---4---4---4---2---2---2---2--|

A|--2---2---2---2---7---7---7---7--|--2---2---2---2---2---2---2---2--|

E|--0---0---0---0---5---5---5---5--|------------------0---0---0---0--|

 

GUITAR 2:

 

e|------------------------------------|------------------------|

B|------------------------------------|------------------------|

G|--13--13--11--9------13--13--11--9--|--11--11--9--11--13--9--|

D|------------------------------------|------------------------|

A|------------------------------------|------------------------|

E|------------------------------------|------------------------|

 

GUITAR 3:

 

e|------------------------------------|------------------------|

B|------------------------------------|------------------------|

G|--13--13--11--9------13--13--11--9--|--11--11--9--11--13--9--|

D|------------------------------------|------------------------|

A|------------------------------------|------------------------|

E|------------------------------------|------------------------|

 

 

 

I Wanna Be Famous - Tron544
00:00 / 00:00

©2019 by Fefe - Tron544

Sigueme en:

  • YouTube - White Circle
  • Facebook - White Circle
  • Instagram - White Circle
  • Twitter - White Circle
This site was designed with the
.com
website builder. Create your website today.
Start Now