I SAY YES

ZERO NO TSUKAIMA ~FUTATSUKI NO KISHI~

TABS ~ By Fefe (Tron544)

 

Intro:

 

e|--------------11--9----9--------------|

B|--------------------------12--11--12--|

G|------10--11--------------------------|

D|--13----------------------------------|

A|--------------------------------------|

E|--------------------------------------|

 

e|--9-----------------------------------|

B|-------------12--11----11--12--11--9--|

G|-----11--11---------------------------|

D|--------------------------------------|

A|--------------------------------------|

E|--------------------------------------|

 

e|----------9----------------9--|--------------------------------------|

B|------11---------------11-----|------12--11--9------9----------------|

G|--11-----------11--11---------|--11-------------11-------11--10--11--|

D|------------------------------|--------------------------------------|

A|------------------------------|--------------------------------------|

E|------------------------------|--------------------------------------|

 

e|-------------------|------------------------|

B|-------------------|------------------------|

G|--3------4------6--|--3------4------6----6--|

D|--3------4------6--|--3------4------6----6--|

A|--1------2------4--|--1------2------4----4--|

E|-------------------|------------------------|

 

 

Verse/Estrofa:

 

GUITAR 1:

 

e|---------|---------|

B|---------|---------|

G|---------|---------|

D|--5---5--|--8---8--|

A|--5---5--|--8---8--|

E|--3---3--|--6---6--|

 

GUITAR 2:

 

e|----------------------------------------|----------------------------------|

B|----------------------------------------|----------------------------------|

G|------------10--12--12--10------10--10--|--10--12--13--13--12--10--12------|

D|--13----13------------------10----------|------------------------------13--|

A|----------------------------------------|----------------------------------|

E|----------------------------------------|----------------------------------|

 

GUITAR 1:

 

e|---------|---------------------11--10----------|

B|---------|-----------------11----------11------|

G|--5---5--|-------------10------------------10--|

D|--5---5--|--8---8------------------------------|

A|--3---3--|--8---8------------------------------|

E|---------|--6---6------------------------------|

 

GUITAR 2:

 

e|--------------------------------------|----------|

B|--------------------------------------|----------|

G|------10--12--12--10------10----------|--10--10--|

D|--13------------------10------13--13--|----------|

A|--------------------------------------|----------|

E|--------------------------------------|----------|

 

GUITAR 1:

 

e|----------------------------------------------------|-----------------------------------------------------|

B|----------------------------------------------------|-----------------------------------------------------|

G|----------------------------------------------------|---------------------------(4)-x--x--x---x--x--x--x--|

D|--(5)-x--x--x--x--x--x--x--(6)-x--x--x--x--x--x--x--|--(8)-x--x--x--x--x--x--x--(4)-x--x--x---x--x--x--x--|

A|--(5)-x--x--x--x--x--x--x--(6)-x--x--x--x--x--x--x--|--(8)-x--x--x--x--x--x--x--(2)-x--x--x---x--x--x--x--|

E|--(3)-x--x--x--x--x--x--x--(4)-x--x--x--x--x--x--x--|--(6)-x--x--x--x--x--x--x----------------------------|

 

GUITAR 2:

 

e|----------------------------------------|----------------------------------|

B|----------------------------------------|----------------------------------|

G|------------10--12--12--10------10--10--|--10--12--13--13--12--10--12------|

D|--13----13------------------10----------|------------------------------13--|

A|----------------------------------------|----------------------------------|

E|----------------------------------------|----------------------------------|

 

GUITAR 1:

 

e|----------------------------------------------------|----------------------------------------------------|

B|----------------------------------------------------|----------------------------------------------------|

G|--(3)-x--x--x--x--x--x--x---------------------------|---------------------------(8)-x--x--x--x--x--x--x--|

D|--(5)-x--x--x--x--x--x--x--(6)-x--x--x--x--x--x--x--|--(8)-x--x--x--x--x--x--x--(8)-x--x--x--x--x--x--x--|

A|--(5)-x--x--x--x--x--x--x--(6)-x--x--x--x--x--x--x--|--(8)-x--x--x--x--x--x--x--(6)-x--x--x--x--x--x--x--|

E|---------------------------(4)-x--x--x--x--x--x--x--|--(6)-x--x--x--x--x--x--x---------------------------|

 

GUITAR 2:

 

e|------------------------------------|----------------------|

B|--------------11--------------------|----------------------|

G|--------------------------------10--|--13--12--------------|

D|--13--12--13------13--13----13------|----------13--12--13--|

A|------------------------------------|----------------------|

E|------------------------------------|----------------------|

I SAY YES - Tron544
00:00 / 00:00
DONATE%20BUTTON%20(EN)_edited.png

Pre-Chorus/Pre-Estribillo:

 

GUITAR 1:

 

e|--------------|-------------------------------------------------------|------------------|

B|--------------|-------------------------------------------------------|------------------|

G|--10------12--|-------------------------------------------------------|--10------8-------|

D|--10------12--|--(6)-x--x--x---x--x--x--x---(6)-x--x--x---x--x--x--x--|--10------8----8--|

A|--8-------10--|--(6)-x--x--x---x--x--x--x---(6)-x--x--x---x--x--x--x--|--8-------6----8--|

E|--------------|--(4)-x--x--x---x--x--x--x---(4)-x--x--x---x--x--x--x--|---------------6--|

 

GUITAR 2:

 

e|--------------------------------------------|--------------------------------------|------------------|

B|--------------11--11----------------13--11--|--11----------------------------------|--------------11--|

G|--------------------------------------------|------13--13--11--11--10------10--10--|--13--12--13------|

D|--13--12--13------------13--12--13----------|--------------------------13----------|------------------|

A|--------------------------------------------|--------------------------------------|------------------|

E|--------------------------------------------|--------------------------------------|------------------|

 

 

Chorus/Estribillo:

 

GUITAR 1:

 

e|------------|-------------------|

B|------------|-------------------|

G|--8---------|---------11----10--|

D|--8------8--|--9------11--------|

A|--6------8--|--9------9-----8---|

E|---------6--|--7----------------|

 

GUITAR 2:

 

e|--------------11--9----9--------------|--9-----------------------------------|

B|--------------------------12--11--12--|-------------12--11----11--12--11--9--|

G|------10--11--------------------------|-----11--11---------------------------|

D|--13----------------------------------|--------------------------------------|

A|--------------------------------------|--------------------------------------|

E|--------------------------------------|--------------------------------------|

 

GUITAR 1:

 

e|------------|-----------------------|

B|------------|-----------------------|

G|--8---------|--6------11----10---6--|

D|--8------9--|--6--------------------|

A|--6------9--|--4------9-----8----4--|

E|---------7--|-----------------------|

 

GUITAR 2:

 

e|----------9----------------9--|-------------------------|

B|------11---------------11-----|------12--11--9----------|

G|--11-----------11--11---------|--11-------------11--11--|

D|------------------------------|-------------------------|

A|------------------------------|-------------------------|

E|------------------------------|-------------------------|

 

GUITAR 1:

 

e|------------|-------------------|

B|------------|-------------------|

G|--8---------|---------11----10--|

D|--8------8--|--9------11--------|

A|--6------8--|--9------9-----8---|

E|---------6--|--7----------------|

 

GUITAR 2:

 

e|--------------11--9----9--------------|--9-----------------------------------|

B|--------------------------12--11--12--|-------------12--11----11--12--11--9--|

G|------10--11--------------------------|-----11--11---------------------------|

D|--13----------------------------------|--------------------------------------|

A|--------------------------------------|--------------------------------------|

E|--------------------------------------|--------------------------------------|

 

GUITAR 1:

 

e|------------|-----|

B|------------|-----|

G|--8---------|--6--|

D|--8------9--|--6--|

A|--6------9--|--4--|

E|---------7--|-----|

 

GUITAR 2:

 

e|----------9----------------9--|---------------------------------|

B|------11---------------11-----|------12--11--9------------------|

G|--11-----------11--11---------|--11-----------------11--10--11--|

D|------------------------------|---------------------------------|

A|------------------------------|---------------------------------|

E|------------------------------|---------------------------------|

 

 

Outro:

 

e|-------------------|------------------------14--|

B|-------------------|--------------------14------|

G|--3------4------6--|----------------11----------|

D|--3------4------6--|--9---------11--------------|

A|--1------2------4--|-----9--11------------------|

E|-------------------|----------------------------|

©2015 by Fefe - Tron544

Sigueme en:

  • YouTube - White Circle
  • Facebook - White Circle
  • Instagram - White Circle
  • Twitter - White Circle
This site was designed with the
.com
website builder. Create your website today.
Start Now