I DO IT

YUI

CHORDS ~ By Fefe (Tron544)

 

Chords used/Acordes utilizados:

 

Bb: x.1.3.3.3.1
C: x.3.5.5.5.3  -  Cm: x.3.5.5.4.3
D: x.5.7.7.7.5  -  Dm: x.5.7.7.6.5
Eb: x.6.8.8.8.6
F: 1.3.3.2.1.1
Gm: 3.5.5.3.3.3

 

 

| Gm | Bb | Eb | C |

 

e|-------------------------------------------------------------------|

B|--11--11--11--11--13--10--11--11--11-------------------------------|

G|--10--10--10--10--10--10--10--10--10---8--7--5---------------------|

D|------------------------------------------------8---7--7--5--5--5--|

A|---------------------------------------6--5--3---------------------|

E|------------------------------------------------6---5--5--3--3--3--|

 

e|-----------------------------------------------15--------------------------|

B|--11--11--11--11--13--10--11--11--11-------13------13---5--5---13--13--13--|

G|--10--10--10--10--10--10--10--10--10---15---------------5--5---12--12--12--|

D|---------------------------------------------------------------------------|

A|---------------------------------------------------------------------------|

E|---------------------------------------------------------------------------|

 

Bb                    Gm                    Eb

   Tokai wo kugurinukeru kousokudouro no mukou ni

    F

Mieta akari wa

Bb                 Gm                    Eb

   Chiisana itami wo mune no oku kagayakasete

    F

Kiete shimau kara

 

Eb         Bb

   Oitsukenai

Eb                F        D

   Sonna ki ga shita kedo

 

Gm     Bb        Eb     C

Atashi wa nanimo kowakunai no

Gm      Bb      Eb      C

Mada shiranai koto bakari

  Gm  Bb       Eb      C

SPEED wa agete hashirinukeru

 Gm      Bb         Eb    C

Iku saki mo douse wakaranai kara

 

 

e|-------------------------------------------------------------------|

B|--11--11--11--11--13--10--11--11--11-------------------------------|

G|--10--10--10--10--10--10--10--10--10---8--7--5---------------------|

D|------------------------------------------------8---7--7--5--5--5--|

A|---------------------------------------6--5--3---------------------|

E|------------------------------------------------6---5--5--3--3--3--|

 

e|-----------------------------------------------15--------------------------|

B|--11--11--11--11--13--10--11--11--11-------13------13---5--5---13--13--13--|

G|--10--10--10--10--10--10--10--10--10---15---------------5--5---12--12--12--|

D|---------------------------------------------------------------------------|

A|---------------------------------------------------------------------------|

E|---------------------------------------------------------------------------|

I do it - Tron544
00:00 / 00:00
DONATE%20BUTTON%20(EN)_edited.png

Bb                   Gm                   Eb

   Akai sora wo utsusu dejitaru kamera mitai ni

     F

Iro wo tsuketashite

Bb                     Gm                            Eb

   Muri ni SENTIMENTAL na koto wa tomete hoshii tte omou no

         F

Datte yarikirenai yo

 

Eb            Bb

   Kowarete yuku

Eb                F       D

   Sonna ki ga suru kara

 

Gm     Bb         Eb    C

Atashi wa mimi wo fusaide iru

Gm      Bb      Eb      C

Mada shiranai koto bakari

  Gm  Bb       Eb      C

SPEED wa agete hashirinukeru

   Gm    Bb         Eb      C

Tachidomaru wake ni wa ikanai kara

e|---------------------------------------------------------------------------|

B|--6-/-15---6---15---6---15--15-----------13--11--10h11p10------------------|

G|-------------------------------------12-----------------10-10-b-10-b-r--9--|

D|---------------------------------12----------------------------------------|

A|---------------------------------------------------------------------------|

E|---------------------------------------------------------------------------|

 

e|-----------------------------------------------------------------------|

B|-------------------------------3-b---8---10--10---11--11---13--13--13--|

G|-----------3------3--5---3--5--3-b-------------------------------------|

D|-----------3------3--5---3--5--------5---7---7----8---8----10--10--10--|

A|--------5------5-------------------------------------------------------|

E|--3--6-----------------------------------------------------------------|

  Eb            Dm

Kotae ga hoshikute

Cm          Dm

Toikakete kita kedo

    Eb          F

Mae ni susumanakya

            Cm

Miete konai to

    Eb                 D

Mou kakugo wa dekite iru yo

 

 

Gm     Bb        Eb     C

Atashi wa nanimo kowakunai no

Gm      Bb      Eb      C

Mada shiranai koto bakari

  Gm  Bb       Eb      C

SPEED wa agete hashirinukeru

Gm     Bb      Eb    C

Kono mama owaritakunai kara

 

e|-------------------------------------------------------------------|

B|--11--11--11--11--13--10--11--11--11-------------------------------|

G|--10--10--10--10--10--10--10--10--10---8--7--5---------------------|

D|------------------------------------------------8---7--7--5--5--5--|

A|---------------------------------------6--5--3---------------------|

E|------------------------------------------------6---5--5--3--3--3--|

 

e|-----------------------------------------------15--------------------------|

B|--11--11--11--11--13--10--11--11--11-------13------13---5--5---13--13--13--|

G|--10--10--10--10--10--10--10--10--10---15---------------5--5---12--12--12--|

D|---------------------------------------------------------------------------|

A|---------------------------------------------------------------------------|

E|---------------------------------------------------------------------------|

 

e|-------------------------------------------------------------------|

B|--11--11--11--11--13--10--11--11--11-------------------------------|

G|--10--10--10--10--10--10--10--10--10---8--7--5---------------------|

D|------------------------------------------------8---7--7--5--5--5--|

A|---------------------------------------6--5--3---------------------|

E|------------------------------------------------6---5--5--3--3--3--|

 

e|-----------------------------------------------15--------------------------|

B|--11--11--11--11--13--10--11--11--11-------13------13---5--5---13--13--13--|

G|--10--10--10--10--10--10--10--10--10---15---------------5--5---12--12--12--|

D|---------------------------------------------------------------------------|

A|---------------------------------------------------------------------------|

E|---------------------------------------------------------------------------|

 

e|----------------------------------|

B|----------------------------------|

G|--8--8---10--10---11--11--11--11--|

D|----------------------------------|

A|--6--6---8---8----9---9---9---9---|

E|----------------------------------|

©2015 by Fefe - Tron544

Sigueme en:

  • YouTube - White Circle
  • Facebook - White Circle
  • Instagram - White Circle
  • Twitter - White Circle
This site was designed with the
.com
website builder. Create your website today.
Start Now