HIGHSCHOOL OF THE DEAD

HIGHSCHOOL OF THE DEAD

TABS ~ By Fefe (Tron544)

 

Intro:

 

  /~~~~~~( REPEAT x3 / REPITE x3 )~~~~~\

e|--------------------------------------|

B|--------------------------------------|

G|--------7--9--9--9--------------------|

D|--9--9--------------7--7--7--8--8--8--|

A|--------------------------------------|

E|--------------------------------------|

 

 

e|---------------------------------------|

B|---------------------------------------|

G|--------7--9--9--9---------------------|

D|--9--9---------------7--7--7--8--8--8--|

A|---------------------7--7--7--8--8--8--|

E|---------------------5--5--5--6--6--6--|

 

e|---------------------------------------------------------------|

B|--8--8--10--8--8---8--8--15--8--8---8--8--7--7---13--12--8--7--|

G|---------------------------------------------------------------|

D|--5--5--7---5--5---5--5--12--5--5---5--5--4--4---10--9---5--4--|

A|---------------------------------------------------------------|

E|---------------------------------------------------------------|

 

e|------------------------------------17b----17--15---------------|

B|--8--8--10--8--8---8--8--15--8--8---------------------------20--|

G|----------------------------------------------------17--16------|

D|--5--5--7---5--5---5--5--12--5--5-------------------------------|

A|----------------------------------------------------------------|

E|----------------------------------------------------------------|

 

 

Verse/Estrofa:

 

GUITAR 2:

 

e|----------------------------------------------------------------------|

B|---------------------5--7---7------5--8----8--10---8---7---8--10---8--|

G|--7----5---4------7---------------------------------------------------|

D|----------------------------------------------------------------------|

A|----------------------------------------------------------------------|

E|----------------------------------------------------------------------|

 

GUITAR 1:

 

e|---------------------------------------------------------------------|

B|---------------------------------------------------------------------|

G|-------------------7--7---7--7--7---5--5---5--5--5---7--7---7--7--7--|

D|--2--2---2--2--2---7--7---7--7--7---5--5---5--5--5---7--7---7--7--7--|

A|--2--2---2--2--2---5--5---5--5--5---3--3---3--3--3---5--5---5--5--5--|

E|--0--0---0--0--0-----------------------------------------------------|

 

GUITAR 2:

 

e|-----10---------------------10---------------|

B|--8------8--8--7--8------8------8--8--10--8--|

G|---------------------------------------------|

D|---------------------------------------------|

A|---------------------------------------------|

E|---------------------------------------------|

 

GUITAR 1:

 

e|------------------------------------------------------------------|

B|------------------------------------------------------------------|

G|-------------------5--5---5--5--5---7--7---7--7--7---4----4----4--|

D|--2--2---2--2--2---5--5---5--5--5---7--7---7--7--7---4----4----4--|

A|--2--2---2--2--2---3--3---3--3--3---5--5---5--5--5---2----2----2--|

E|--0--0---0--0--0--------------------------------------------------|

 

GUITAR 2:

 

e|------------------------------------------|

B|--8--8--8--8--7--7------7--8--10--12--10--|

G|------------------------------------------|

D|------------------------------------------|

A|------------------------------------------|

E|------------------------------------------|

Highschool of the Dead - Tron544
00:00 / 00:00
DONATE%20BUTTON%20(EN)_edited.png

Pre-Chorus/Pre-Estribillo:

 

GUITAR 1:

 

e|----------------------------------------------------------------------------------------------------------|

B|----------------------------------------------------------------------------------------------------------|

G|--5---(2)-x--x--x--x--x--x--x--(4)-x--x--x--x--x--x--x--(5)-x--x--x--x--x--x--x--(4)-x--x--x--x--x--x--4--|

D|--5---(2)-x--x--x--x--x--x--x--(4)-x--x--x--x--x--x--x--(5)-x--x--x--x--x--x--x--(4)-x--x--x--x--x--x--4--|

A|--3---(0)-x--x--x--x--x--x--x--(2)-x--x--x--x--x--x--x--(3)-x--x--x--x--x--x--x--(2)-x--x--x--x--x--x--2--|

E|----------------------------------------------------------------------------------------------------------|

 

GUITAR 2:

 

e|--------------------------------------7--7--7--7--7--7--7--8--7------7--7------7--10--------|

B|--8--8--8--8--8--8--8--10--10--10--------------------------------10-------------------8--7--|

G|--------------------------------------------------------------------------------------------|

D|--------------------------------------------------------------------------------------------|

A|--------------------------------------------------------------------------------------------|

E|--------------------------------------------------------------------------------------------|

 

 

Chorus/Estribillo:

 

GUITAR 1:

 

e|------------------------------------------------------|

B|------------------------------------------------------|

G|---------5-------------7------5------4------5------4--|

D|--2------5------5------7------5------4------5------4--|

A|--2------3------5------5------3------2------3------2--|

E|--0-------------3-------------------------------------|

 

GUITAR 2:

 

e|-----8--7--7------7--7------7--10------------------------------------------------------------------|

B|--8---------------------10---------8--8------8--8--8--7--8----8--8--8--7--8----8--8--8--10--8--10--|

G|---------------------------------------------------------------------------------------------------|

D|---------------------------------------------------------------------------------------------------|

A|---------------------------------------------------------------------------------------------------|

E|---------------------------------------------------------------------------------------------------|

 

GUITAR 1:

 

e|------------------------------------------------------|

B|------------------------------------------------------|

G|---------5-------------7------5------4------5------4--|

D|--2------5------5------7------5------4------5------4--|

A|--2------3------5------5------3------2------3------2--|

E|--0-------------3-------------------------------------|

 

GUITAR 2:

 

e|-----8--7--7------7--7------7--10------------------------------------------------------------------------|

B|--8---------------------10---------8--8----8--8--8--7--8----8--8--8--7--8----8--8--8--10--8--10--12--12--|

G|---------------------------------------------------------------------------------------------------------|

D|---------------------------------------------------------------------------------------------------------|

A|---------------------------------------------------------------------------------------------------------|

E|---------------------------------------------------------------------------------------------------------|

 

 

Outro:

 

e|--------------------------------------------------------------------|

B|--------------------------------------------------------------------|

G|--------------------------------------------------------------------|

D|-----9--8--7-------------9--8--7-------------9--8--7----------------|

A|--7-----------10------7-----------10------7-----------10------6--7--|

E|------------------10------------------10------------------10--------|

 

e|--------------------------------------------------------------------|

B|--------------------------------------------------------------------|

G|--------------------------------------------------------------------|

D|-----9--8--7-------------9--8--7-------------9--8--7----------------|

A|--7-----------10------7-----------10------7-----------10------6--7--|

E|------------------10------------------10------------------10--------|

©2015 by Fefe - Tron544

Sigueme en:

  • YouTube - White Circle
  • Facebook - White Circle
  • Instagram - White Circle
  • Twitter - White Circle
This site was designed with the
.com
website builder. Create your website today.
Start Now