HOMURA

DEMON SLAYER: MUGEN TRAIN

CHORDS ~ By Fefe (Tron544)

 

Chords used/Acordes utilizados:

A: x.0.2.2.2.0 or 5.7.7.6.5.5  -  A5: x.0.2.2.x.x or 5.7.7.x.x.x
A/C#: x.4.7.6.5.x
Bb: x.1.3.3.3.1
B: x.2.4.4.4.2 or 7.9.9.8.7.7  -  Bm: x.2.4.4.3.2
B5: x.2.4.4.x.x  -  B°: x.2.3.1.3.x  -  B/D#: x.6.9.8.7.x
C: x.3.5.5.5.3  -  Cm: x.3.5.5.4.3
C#(b5): x.4.5.6.x.x  -  C#m: x.4.6.6.5.4
D: x.5.7.7.7.5  -  Dm: x.5.7.7.6.5  -  D/F#: 2.5.4.2.3.2
D#Ø: x.6.7.6.7.x  -  Eb: x.6.8.8.8.6
E: x.7.9.9.9.7  -  Em: 0.2.2.0.0.0
F#5: 2.4.4.x.x.x
G: 3.5.5.4.3.3  -  Gsus4: 3.5.5.5.3.3  -  G5: 3.5.5.x.x.x 
G#: 4.6.6.5.4.4  -  G#m: 4.6.6.4.4.4  -  G#7: 4.6.4.5.4.4

 

    Bm           A             G        D
e|-----------10--9---------------------------------|
B|--------7---------10---------8--------7----------|
G|-----7----------------9---------7--9-------------|
D|--9----------------------11----------------------|
A|-------------------------------------------------|
E|-------------------------------------------------|

 


     Bm       G        A        D   A/C#
   Sayonara arigatou koe no kagiri
       Bm         G        A       D   A/C#
   Kanashimi yori motto daiji na koto
     Bm       G          A      D   A/C#
   Sariyuku senaka ni tsutaetakute
       Bm       G             A
   Nukumori to itami ni ma ni au you ni

e|--------------------------------------------------------------|
B|--------------------------------------------------------------|
G|----4--2-4-4-4-4--#-4-#-#-4-4-2-4-2---#-2-2-2-2--#-2-------2--|
D|-----------------------------------------------------4-2-4----|
A|--------------------------------------------------------------|
E|--------------------------------------------------------------|

e|----------------------------------------------------------------|
B|----------------------------------------------------------------|
G|--4-2-4--#-4-4-4-4--#-4-4-4-4-4-2-4-2---#-2-2-2-2--------2-4-2--|
D|---------------------------------------------------#-2-4--------|
A|----------------------------------------------------------------|
E|----------------------------------------------------------------|

e|----------------------------------------------------------------|
B|----------------------------------------------------------------|
G|--4-2-4--#-4-4-4-4--#-4-4-4-4-4-2-4-2---#-2-2-2-2--#-2-------2--|
D|-------------------------------------------------------4-2-4----|
A|----------------------------------------------------------------|
E|----------------------------------------------------------------|

e|-----------------------------------------------------------|
B|-----------------------------------------------------------|
G|--4-2-4--#-4-4-4-4--#-4-4-4-4-4-2-4-2---#-2-2-2-2----------|
D|-----------------------------------------------------------|
A|-----------------------------------------------------------|
E|------------------------------
-----------------------------|

 


   B5   A5   G5            F#5
   Kono mama tsuzuku to omotteita
     B5      C#(b5)    F#5   B5
   Bokura no ashita wo egaiteita

e|-----------------------------------------|
B|--------------------------3--2h3p2-------|
G|-----------------------------------4--2--|
D|-----------------------------------------|
A|-----------------------------------------|
E|-----------------------------------------|

       G5
   Yobiatteita (Yobiatteita)
       A5
   Hikari ga mada (Hikari ga)
        Bb        B°    C     A/C#
   Mune no oku ni atsui no ni

 


             C#m       A             B         E   B/D#
   Bokutachi wa moesakaru tabi no tochuu de deai
         C#m            A         B              G#7
   Te wo toorikoshite hanashita mirai no tame ni
             C#m           A       B           G#    A
   Yume ga hitotsu kanau tabi boku wa kimi wo omou kara
             G#m C#m  D#Ø   G#7 C#m   B
   Tsuyoku naritai to negai naita
        A      B
   Ketsui wo hanamuke ni


    C#m         B            A         E
e|-------------------------------5-----4----------|
B|-----------5--4-------------------5--5----------|
G|--6-----6--------4-----4--4/6--------4----------|
D|-----6--------------4---------------------------|
A|------------------------------------------------|
E|------------------------------------------------|

    Bm           A             G        D
e|-----------10--9---------------------------------|
B|--------7---------10---------8--------7----------|
G|-----7----------------9---------7--9-------------|
D|--9----------------------11----------------------|
A|-------------------------------------------------|
E|-------------------------------------------------|

Homura - Tron544
00:00 / 00:00
DONATE%20BUTTON%20(EN)_edited.png

     Bm         G        A       D   A/C#
   Natsukashii omoi ni torawaretai
      Bm        G          A    D   A/C#
   Zankoku na sekai ni nakisakende
    Bm        G         A     D   A/C#
   Otona ni naru hodo fuete yuku
       Bm           G         A
   Mou nani hitotsu datte ushinaitakunai

  /~~~~~~~~~~~~~~~( REPEAT x3 / REPITE x3 )~~~~~~~~~~~~~~\
e|--------------------------------------------------------|
B|--3-3-#-3-3-#-3-3-#-3-3------2-2-#-2-2-#-3-3-#-3-3-#-2--|
G|--4-4-#-4-4-#-4-4-#-4-4------2-2-#-2-2-#-4-4-#-4-4-#-2--|
D|--------------------------------------------------------|
A|--------------------------------------------------------|
E|--------------------------------------------------------|

e|-------------------------------------------------------|
B|--3-3-#-3-3-#-3-3-#-3-3------2-2-#-2-2-#-3-3-----------|
G|--4-4-#-4-4-#-4-4-#-4-4------2-2-#-2-2-#-4-4-----------|
D|-------------------------------------------------------|
A|-------------------------------------------------------|
E|-------------------------------------------------------|

 


   B5  A5    G5                  F#5
   Kanashimi ni nomare ochite shimaeba
    B5       C#(b5)   F#5    B5
   Itami wo kanjinaku naru keredo

e|-----------------------------------------|
B|--------------------------3--2h3p2-------|
G|-----------------------------------4--2--|
D|-----------------------------------------|
A|-----------------------------------------|
E|-----------------------------------------|

        G5
   Kimi no kotoba (Kimi no kotoba)
        A5
   Kimi no negai (Kimi no koe)
        Bb       B°         C         A/C#
   Boku wa mamorinuku to chikattan da

 


||:  Em  |  C  |  D  | G D/F# :|| x2

       Em          C   D           Em   D
   Oto wo tatete kuzureochite yuku
       Eb               Cm
   Hitotsu dake no (Hitotsu dake no)
       Dm           Gsus4      G
   Kakegae no nai sekai


    Em          D           C         G
e|--------------------------8---------7----------|
B|-----------8--7--------------8--10--8----------|
G|--9-----9--------7-----7------------7----------|
D|-----9--------------7--------------------------|
A|-----------------------------------------------|
E|-----------------------------------------------|


             C#m         A           B           E   B/D#
   Te wo nobashi dakitometa hageshii hikari no taba
       C#m        A     B              G#7
   Kagayaite kietetta mirai no tame ni
           C#m         A      B         G#    A
   Takusareta shiawase to yakusoku wo koete yuku
        G#m C#m   D#Ø G#7  C#m   B
   Furikaerazu ni susumu kara
A        G#m      G#7      C#m   B
   Mae dake muite sakebu kara
A         G#m       G#7       C#m
   Kokoro ni homura wo tomoshite
   B  A   B
   Tooi mirai made


    C#m     B       A       E           C#m     B                    A      E
e|-----------------------------------------------------------------------------------|
B|------------------------------12(NH)--------------9h10p9h10p9h10p9-----------------|
G|-----------------------------------------------------------------------------------|
D|-----------------------------------------------------------------------------------|
A|-----------------------------------------------------------------------------------|
E|-----------------------------------------------------------------------------------|

    Bm           A             G        D
e|-----------10--9-------------------------|
B|--------7---------10---------8--------7--|
G|-----7----------------9---------7--9-----|
D|--9----------------------11--------------|
A|-----------------------------------------|
E|-----------------------------------------|

©2015 by Fefe - Tron544

Sigueme en:

  • YouTube - White Circle
  • Facebook - White Circle
  • Instagram - White Circle
  • Twitter - White Circle
This site was designed with the
.com
website builder. Create your website today.
Start Now