HOLOGRAM

FULLMETAL ALCHEMIST: BROTHERHOOD

CHORDS ~ By Fefe (Tron544)

 

Chords used/Acordes utilizados:

 

Am: x.0.2.2.1.0
C: x.3.2.0.1.0  -  C/E: 0.3.2.0.1.0
D5: x.x.0.2.3.x
Em: 0.2.2.0.0.0  -  Em/G#: 4.2.2.0.0.0
F: 1.3.3.2.1.1
G: 3.2.0.0.3.3  -  G/B: x.2.0.0.3.3

 

 

F                          Am

Masshiro na keshiki ni ima sasowarete

     D5         E               F

Boku wa yuku yo mada minu sekai e

 

| F Em | Am | D5 G | C |

 

         F  Em  Am

Maigo no mama tabi shiteita

    D5       G/B     C/E

Nezumiiro no sora no shita

            F      Em

Higawari no chizu

Am               D5          Em

Ikutsumo no yume ga nijiindeita

          F    Em

Itsuka wa sa

Am               D5      G/B    C/E

Chippoke na boku no kono hohaba demo

    F    Em   Am        D5  G   C

Ano kumo no mukou made ikeru ka na

 

        F

Tsuyogatte

Em      Am            D5    G/B     C/E

Kizutsuita kokoro sukashita you ni

         F   Em     Am

Furidashita amatsubutachi ga

D5        Em

Ranhansha kurikaesu

 

F    G     Em  Am    F  G     C

Massugu na hikari ga kousa shite

   F    G    Em/G#   Am

Ikusaki mo tsugenu mama

D5         Em

Dokomademo tsukinukeru

F    G      Em  Am    F   G    C

Awai zanzou ryoume ni yakitsukete

     D5            Em                F     Em

Kono sora no shita donna toko ni ite mo

    D5            Em   

Todoku hazu nanda mada minu sekai e

 

| F Em | Am | D5 G | C |

Hologram - Tron544
00:00 / 00:00
DONATE%20BUTTON%20(EN)_edited.png

TABS ~ By Fefe (Tron544)

 

Intro:

 

GUITAR 2:

 

e|--------------------------------------------------|

B|-----------8--------------------------------------|

G|-----9--7-----9-------------------------7--7-h-9--|

D|--7--------------------------7--10--10------------|

A|-----------------10--10--10-----------------------|

E|--------------------------------------------------|

 

GUITAR 1:

 

e|------------------------------------------------|

B|------------------------------------------------|

G|--7------9------10--x--10--x--10--x--10--x--10--|

D|--7------9------10--x--10--x--10--x--10--x--10--|

A|--5------7------8---x--8---x--8---x--8---x--8---|

E|------------------------------------------------|

 

GUITAR 2:

 

e|---------------------------------------------------------------|

B|------------------------8--------------------------------------|

G|---------------------7-----10--9--10--9--7--7------------------|

D|----------7--10--10----------------------------10------12--10--|

A|--10--10-------------------------------------------------------|

E|---------------------------------------------------------------|

 

GUITAR 1:

 

e|--------------------------------------------|-------------------------------------------------------------|

B|--------------------------------------------|-------------------------------------------------------------|

G|-12--------------------12-------------------|-12------------------------------------------------------12--|

D|-----9--10------9--10------9--10------9--10-|-----9--10------9--10--12--12-b--12-b--10------9--10--12-----|

A|------------12--------------------12--------|------------12-----------------------------------------------|

E|--------------------------------------------|-------------------------------------------------------------|

 

 

Verse/Estrofa:

 

GUITAR 2:

 

e|--------------------------------------|--------------------------------------|

B|--------------------------------------|--------------------------------------|

G|--9--7------7-------------------------|--------------------------------------|

D|--------10-----10----------10--9--10--|--7--9--10---10--10--10---------------|

A|---------------------8--7-------------|--------------------------8--7--8--7--|

E|--------------------------------------|--------------------------------------|

 

e|------------------------------------------|---------------------------|

B|------------8-----------------------------|---------------------------|

G|------9--9---------7----------------------|------------------------7--|

D|---------------10-----10-------10--9--10--|--7--9--10---10--10--9-----|

A|--10------------------------7-------------|---------------------------|

E|------------------------------------------|---------------------------|

 

GUITAR 1:

 

e|-------------------3-----|-----------5--3-----3--|

B|----------------3-----3--|--------3--------3--3--|

G|----------4--5--------5--|--4--5-----------------|

D|--2--2-------------------|-----------------------|

A|--2--2-------------------|-----------------------|

E|--0--0-------------------|-----------------------|

 

GUITAR 2:

 

e|--------------------------------|--------------------------------------|

B|--------------------------------|--------------------------------------|

G|--9--7--------------------------|--------------------------------------|

D|--------10--10-------10--9--10--|--7--9--10---10--10--10---------------|

A|------------------7-------------|--------------------------8--7--8--7--|

E|--------------------------------|--------------------------------------|

 

GUITAR 1:

 

e|-------------------3-----|-------------------------3--1--0-----|

B|----------------3-----3--|---------1------------------------1--|

G|----------4--5--------5--|--------------------0----------------|

D|--2--2-------------------|------2----------2-------------------|

A|--2--2-------------------|--3----------2-----------------------|

E|--0--0-------------------|-------------------------------------|

 

GUITAR 2:

 

e|------------------------------------------------|---------------------------------|

B|------------------------------------------------|---------------------------------|

G|--9--7------------------------------------------|---------7--------9--10--12------|

D|--------10--7--10--9---------10--9--10------10--|--10--9-----10---------------10--|

A|----------------------10--7-------------10------|---------------------------------|

E|------------------------------------------------|---------------------------------|

 

 

Pre-Chorus/Pre-Estribillo:

 

GUITAR 1:

 

e|---------------------------------------------------3----------------------------------|

B|--------1-------------0--1--0--1--0-------------3------------0---1--3--1--3--1--3--1--|

G|------------------0------------------2--0----2------------0---------------------------|

D|-----2---------2---------------------------------------2------------------------------|

A|--3---------2-------------------------------------------------------------------------|

E|--------------------------------------------------------------------------------------|

 

GUITAR 2:

 

e|--------------------------------------------------------------------|

B|--------------------------------------------------------------------|

G|--9--10--12--------9--10--9--7---------------------9--10--9--7------|

D|-------------10-----------------10--7------10-------------------10--|

A|---------------------------------------10---------------------------|

E|--------------------------------------------------------------------|

 

GUITAR 1:

 

e|-------------------------------------------------------------------|

B|--------1-------------0--1--0--------------------------------------|

G|------------------0------------2--0----7--5--7--5---9--9--9--9--9--|

D|-----2---------2---------------------------------------------------|

A|--3---------2--------------------------5--3--5--3---7--7--7--7--7--|

E|-------------------------------------------------------------------|

 

GUITAR 2:

 

e|-----------------------------------------------------------|

B|-----------------------------------------------------------|

G|--9--10--9--7-----------------------------9--10--9--10--9--|

D|---------------10--7--------10--7--10--7-------------------|

A|----------------------10-----------------------------------|

E|-----------------------------------------------------------|

 

 

Chorus/Estribillo:

 

GUITAR 1:

 

e|------------------------------------------|------------------------------------------|

B|--13------12------12------12------13------|--13------12------12------12------13------|

G|--12--12------12--12--12------12--12--12--|--12--12------12--12--12------12--12--12--|

D|------------------------------------------|------------------------------------------|

A|------------------------------------------|------------------------------------------|

E|------------------------------------------|------------------------------------------|

 

GUITAR 2:

 

e|--------------------------------------------------|

B|-----------8--------------------------------------|

G|-----9--7-----9-------------------------7--7-h-9--|

D|--7--------------------------7--10--10------------|

A|-----------------10--10--10-----------------------|

E|--------------------------------------------------|

 

GUITAR 1:

 

e|------------------------------------------|------------------------------------------|

B|--13------12------12------12------13------|--13------15------12------12------13------|

G|--12--12------12--12--12------12--12--12--|--12--12--12--12--12--12------12--12--12--|

D|------------------------------------------|------------------------------------------|

A|------------------------------------------|------------------------------------------|

E|------------------------------------------|------------------------------------------|

 

GUITAR 2:

 

e|-----------------------------------------------------------------------------|

B|------------------------------9------------------------------8---------------|

G|---------------------7--9--9-----7--------7--------------------10--9--10--9--|

D|----------7--10--10-----------------10-------10--10--10----------------------|

A|--10--10-------------------------------------------------10------------------|

E|-----------------------------------------------------------------------------|

 

GUITAR 1:

 

e|------------------------------------------|------------------------------------------|

B|--13------12------12------12------13------|--13------12------12------12------13------|

G|--12--12------12--12--12------12--12--12--|--12--12------12--12--12------12--12--12--|

D|------------------------------------------|------------------------------------------|

A|------------------------------------------|------------------------------------------|

E|------------------------------------------|------------------------------------------|

 

GUITAR 2:

 

e|------------------------------------------------------|

B|---------------8--------------------------------------|

G|---------9--7-----9-------------------------7--7-h-9--|

D|------7--------------------------7--10--10------------|

A|--10-----------------10--10--10-----------------------|

E|------------------------------------------------------|

 

GUITAR 1:

 

e|------------------------------------------|------------------------------------------|

B|--13------12------12------12------13------|--13------15------12------12------13------|

G|--12--12------12--12--12------12--12--12--|--12--12--12--12--12--12------12--12--12--|

D|------------------------------------------|------------------------------------------|

A|------------------------------------------|------------------------------------------|

E|------------------------------------------|------------------------------------------|

 

GUITAR 2:

 

e|------------------------------------------------------------|

B|------------------------8-----------------------------------|

G|---------------------7-----10--9--10--9--7--7------------7--|

D|----------7--10--10----------------------------10----10-----|

A|--10--10----------------------------------------------------|

E|------------------------------------------------------------|

 

GUITAR 1:

 

e|------------|

B|------------|

G|--7------9--|

D|--7------9--|

A|--5------7--|

E|------------|

 

GUITAR 2:

 

e|---------------------------------------------------|

B|------------------------8--------------------------|

G|---------------------7-----10--9--10--9--7--7------|

D|----------7--10--10----------------------------10--|

A|--10--10-------------------------------------------|

E|---------------------------------------------------|

 

 

Outro:

 

e|----------------------------------------------|--------------------------------------------|

B|----------------------------------------------|--------------------------------------------|

G|--12--------------------12--------------------|--12----------------------------------------|

D|------9--10------9--10------9--10------9--10--|------9--10------9--10--12--12-b--12-b--10--|

A|-------------12--------------------12---------|-------------12-----------------------------|

E|----------------------------------------------|--------------------------------------------|

©2015 by Fefe - Tron544

Sigueme en:

  • YouTube - White Circle
  • Facebook - White Circle
  • Instagram - White Circle
  • Twitter - White Circle
This site was designed with the
.com
website builder. Create your website today.
Start Now