SMILE BOMB

YUYUHAKUSHO

TABS ~ By Fefe (Tron544)

 

Intro:

GUITAR (Lead):

e|------------------------------------|
B|----#-#---#-#---#-#----#-#---#-#-#--|
G|--8-#-#-8-#-#-8-#-#----#-#---#-#-#--|
D|----#-#---#-#---#-#-10-#-#-8-#-#-#--|
A|------------------------------------|
E|------------------------------------|

e|---------------------------------------|

B|----#-#---#-#---#-#----#-#--------#-#--|

G|--8-#-#-8-#-#-8-#-#----#-#--------#-#--|

D|----#-#---#-#---#-#-10-#-#-8-h-10-#-#--|

A|---------------------------------------|

E|---------------------------------------|

e|--------------------------------------------------------------------------|
B|----#-#---#-#---#-#----#-#---#-#-#---------#---#-#----#-#---#-#----#-#-#--|
G|--8-#-#-8-#-#-8-#-#----#-#---#-#-#--8-h-11-#-8-#-#----#-#---#-#----#-#-#--|
D|----#-#---#-#---#-#-10-#-#-8-#-#-#---------#---#-#-10-#-#-8-#-#-10-#-#-#--|
A|--------------------------------------------------------------------------|
E|--------------------------------------------------------------------------|

e|--------------------------------------------------------------------------------|
B|--------#---#-#---#-#---#-#---#-#-#--9-/-11-#-11-#-#---#--#-9-/-11--11-11--#-#--|
G|--7-/-8-#-8-#-#-8-#-#-7-#-#-8-#-#-#--8-/-10-#-10-#-#---#--#-8-/-10--10-10--#-#--|
D|--------#---#-#---#-#---#-#---#-#-#---------#----#-#-8-#--#----------------#-#--|
A|--------------------------------------------------------------------------------|
E|--------------------------------------------------------------------------------|

e|----------------------------------------------------------------|
B|----#-#---#-#--------#---#-#----#-#-#--11--11-#-#-11-#-11---11--|
G|--8-#-#-8-#-#-8-h-10-#-8-#-#----#-#-#--10--10-#-#-10-#-8----9---|
D|----#-#---#-#--------#---#-#-10-#-#-#---------#-#----#----------|
A|----------------------------------------------------------------|
E|----------------------------------------------------------------|

 


Verse/Estrofa:

GUITAR (Vocals):

e|--------------------------------------------|
B|--------------------------------------------|
G|--8--8--8--------------8--8--8--------------|
D|------------10-8-8-10------------10--8--10--|
A|--------------------------------------------|
E|--------------------------------------------|

GUITAR (Lead):

e|------------------------------------------------------------------------|
B|----#-#---#-#---#-#----#-#---#-#-#----#-#---#-#---#-#----#-#-11-11-#-#--|
G|--8-#-#-8-#-#-8-#-#----#-#---#-#-#--8-#-#-8-#-#-8-#-#-10-#-#-------#-#--|
D|----#-#---#-#---#-#-10-#-#-8-#-#-#----#-#---#-#---#-#----#-#-------#-#--|
A|------------------------------------------------------------------------|
E|------------------------------------------------------------------------|

GUITAR (Vocals):

e|-----------------------|
B|----------------8------|
G|--8--8--8---10---------|
D|-------------------10--|
A|-----------------------|
E|-----------------------|

GUITAR (Lead):

e|-----------------------------------------------------------------------|
B|----#-#---#-#---#-#----#-#---#-#-#----#-#---#-#----#-#---#-#----#-#-#--|
G|--8-#-#-8-#-#-8-#-#----#-#---#-#-#--8-#-#-8-#-#----#-#---#-#----#-#-#--|
D|----#-#---#-#---#-#-10-#-#-8-#-#-#----#-#---#-#-10-#-#-8-#-#-10-#-#-#--|
A|-----------------------------------------------------------------------|
E|-----------------------------------------------------------------------|

GUITAR (Vocals):

e|--------------------------------------------|
B|--------------------------------------------|
G|--8--8--8--------------8--8--8--------------|
D|------------10--8--10------------10-8-8-10--|
A|--------------------------------------------|
E|--------------------------------------------|

GUITAR (Lead):

e|------------------------------------------------------------------------|
B|----#-#---#-#---#-#----#-#---#-#-#----#-#---#-#---#-#----#-#-11-11-#-#--|
G|--8-#-#-8-#-#-8-#-#----#-#---#-#-#--8-#-#-8-#-#-8-#-#-10-#-#-------#-#--|
D|----#-#---#-#---#-#-10-#-#-8-#-#-#----#-#---#-#---#-#----#-#-------#-#--|
A|------------------------------------------------------------------------|
E|------------------------------------------------------------------------|

GUITAR (Vocals):

e|----------------------------------------|
B|----------------8-----------------8--9--|
G|--8--8--8---10-------------8--10--------|
D|-------------------10-------------------|
A|----------------------------------------|
E|----------------------------------------|

GUITAR (Lead):

e|-----------------------------------------------------------------------|
B|----#-#---#-#---#-#----#-#---#-#-#----#-#---#-#----#-#---#-#----#-#-#--|
G|--8-#-#-8-#-#-8-#-#----#-#---#-#-#--8-#-#-8-#-#----#-#---#-#----#-#-#--|
D|----#-#---#-#---#-#-10-#-#-8-#-#-#----#-#---#-#-10-#-#-8-#-#-10-#-#-#--|
A|-----------------------------------------------------------------------|
E|-----------------------------------------------------------------------|

 


Pre-Chorus/Pre-Estribillo:

GUITAR (Vocals):

e|--------------------------------|
B|--9-/-11----------11---9--8--9--|
G|--------------------------------|
D|--------------------------------|
A|--------------------------------|
E|--------------------------------|

GUITAR (Lead):

e|----------------------------------------------------------------------------|
B|----------------------------------------------------------------------------|
G|--8---8--#-#-8---8--8--8--8--8--8--8---10--10-#-#-10--10-10-10-10-10-10-10--|
D|--10--10-#-#-10--10-10-10-10-10-10-10--12--12-#-#-12--12-12-12-12-12-12-12--|
A|----------------------------------------------------------------------------|
E|----------------------------------------------------------------------------|

GUITAR (Vocals):

e|--------------------------------------|
B|--8-----------------------------------|
G|----------------8-/-10--8----8--7--8--|
D|-----8--8----8------------------------|
A|--------------------------------------|
E|--------------------------------------|

GUITAR (Lead):

e|--------------------------------------------------------|
B|--------------------------------------------------------|
G|--7--7-#-#-7--7-7-7-7-7-7-7--8--8-#-#-8--8-8-8-8-8-8-8--|
D|--8--8-#-#-8--8-8-8-8-8-8-8--7--7-#-#-7--7-7-7-7-7-7-7--|
A|--------------------------------------------------------|
E|--------------------------------------------------------|

GUITAR (Vocals):

e|----------------------------|---------------------------|
B|-------------------------8--|--8--8-------8--8----------|
G|------7--7-h-8----8--10-----|---------10--------11--10--|
D|--10------------------------|---------------------------|
A|----------------------------|---------------------------|
E|----------------------------|---------------------------|

GUITAR (Lead):

e|--11-#-#-11-#-#-11-#-#-11-#-#-11-11-11-11--11-#-#-11-#-#-11-#-#-11-#-#-11-11-11-11--|--11--|
B|-----#-#----#-#----#-#----#-#-----------------#-#----#-#----#-#----#-#--------------|------|
G|--8--#-#-8--#-#-8--#-#-8--#-#-8--8--8--8---8--#-#-8--#-#-8--#-#-8--#-#-8--8--8--8---|--8---|
D|------------------------------------------------------------------------------------|------|
A|------------------------------------------------------------------------------------|------|
E|------------------------------------------------------------------------------------|------|

Hohoemi no Bakudan - Tron544
00:00 / 00:00
DONATE%20BUTTON%20(EN)_edited.png

Chorus/Estribillo:

GUITAR (Vocals):

e|---------------------------------------------|
B|--------8--8----8-8-8------9-/-11--9--8------|
G|--8--10----------------10----------------10--|
D|---------------------------------------------|
A|---------------------------------------------|
E|---------------------------------------------|

GUITAR (Lead):

e|-------|-------------------------------------------------------------------------|
B|--#-#--|----#-#---#-#---#-#----#-#---#-#-#----#-#---#-#---#-#----#-#--------#-#--|
G|--#-#--|--8-#-#-8-#-#-8-#-#----#-#---#-#-#--8-#-#-8-#-#-8-#-#----#-#--------#-#--|
D|--#-#--|----#-#---#-#---#-#-10-#-#-8-#-#-#----#-#---#-#---#-#-10-#-#-8-h-10-#-#--|
A|-------|-------------------------------------------------------------------------|
E|-------|-------------------------------------------------------------------------|

GUITAR (Vocals):

e|------------------------|
B|------8----------8------|
G|--10---------10---------|
D|---------8----------10--|
A|------------------------|
E|------------------------|

GUITAR (Lead):

e|--------------------------------------------------------------------------|
B|----#-#---#-#---#-#----#-#---#-#-#---------#---#-#----#-#---#-#----#-#-#--|
G|--8-#-#-8-#-#-8-#-#----#-#---#-#-#--8-h-11-#-8-#-#----#-#---#-#----#-#-#--|
D|----#-#---#-#---#-#-10-#-#-8-#-#-#---------#---#-#-10-#-#-8-#-#-10-#-#-#--|
A|--------------------------------------------------------------------------|
E|--------------------------------------------------------------------------|

GUITAR (Vocals):

e|-----------------------------------------|
B|--8-----------------8--------------------|
G|-----8--10------8-------8--10------8--8--|
D|------------10-----------------10--------|
A|-----------------------------------------|
E|-----------------------------------------|

GUITAR (Lead):

e|--------------------------------------------------------------------------------|
B|--------#---#-#---#-#---#-#---#-#-#--9-/-11-#-11-#-#---#--#-9-/-11--11-11--#-#--|
G|--7-/-8-#-8-#-#-8-#-#-7-#-#-8-#-#-#--8-/-10-#-10-#-#---#--#-8-/-10--10-10--#-#--|
D|--------#---#-#---#-#---#-#---#-#-#---------#----#-#-8-#--#----------------#-#--|
A|--------------------------------------------------------------------------------|
E|--------------------------------------------------------------------------------|

GUITAR (Vocals):

e|------------------------------|
B|-----------------------6-/-8--|
G|--7---8--7---8--10--8---------|
D|------------------------------|
A|------------------------------|
E|------------------------------|

GUITAR (Lead):

e|----------------------------------------------------------------|
B|----#-#---#-#--------#---#-#----#-#-#--11--11-#-#-11-#-11---11--|
G|--8-#-#-8-#-#-8-h-10-#-8-#-#----#-#-#--10--10-#-#-10-#-8----9---|
D|----#-#---#-#--------#---#-#-10-#-#-#---------#-#----#----------|
A|----------------------------------------------------------------|
E|----------------------------------------------------------------|

e|---------------------------------------------|
B|--------8--8----8-8-8------9-/-11--9--8------|
G|--8--10----------------10----------------10--|
D|---------------------------------------------|
A|---------------------------------------------|
E|---------------------------------------------|

GUITAR (Lead):

e|-------|-------------------------------------------------------------------------|
B|--#-#--|----#-#---#-#---#-#----#-#---#-#-#----#-#---#-#---#-#----#-#--------#-#--|
G|--#-#--|--8-#-#-8-#-#-8-#-#----#-#---#-#-#--8-#-#-8-#-#-8-#-#----#-#--------#-#--|
D|--#-#--|----#-#---#-#---#-#-10-#-#-8-#-#-#----#-#---#-#---#-#-10-#-#-8-h-10-#-#--|
A|-------|-------------------------------------------------------------------------|
E|-------|-------------------------------------------------------------------------|

GUITAR (Vocals):

e|------------------------|
B|------8----------8------|
G|--10---------10---------|
D|---------8----------10--|
A|------------------------|
E|------------------------|

GUITAR (Lead):

e|--------------------------------------------------------------------------|
B|----#-#---#-#---#-#----#-#---#-#-#---------#---#-#----#-#---#-#----#-#-#--|
G|--8-#-#-8-#-#-8-#-#----#-#---#-#-#--8-h-11-#-8-#-#----#-#---#-#----#-#-#--|
D|----#-#---#-#---#-#-10-#-#-8-#-#-#---------#---#-#-10-#-#-8-#-#-10-#-#-#--|
A|--------------------------------------------------------------------------|
E|--------------------------------------------------------------------------|

GUITAR (Vocals):

e|-----------------------------------------|
B|--8-----------------8--------------------|
G|-----8--10------8-------8--10------8--8--|
D|------------10-----------------10--------|
A|-----------------------------------------|
E|-----------------------------------------|

GUITAR (Lead):

e|--------------------------------------------------------------------------------|
B|--------#---#-#---#-#---#-#---#-#-#--9-/-11-#-11-#-#---#--#-9-/-11--11-11--#-#--|
G|--7-/-8-#-8-#-#-8-#-#-7-#-#-8-#-#-#--8-/-10-#-10-#-#---#--#-8-/-10--10-10--#-#--|
D|--------#---#-#---#-#---#-#---#-#-#---------#----#-#-8-#--#----------------#-#--|
A|--------------------------------------------------------------------------------|
E|--------------------------------------------------------------------------------|

GUITAR (Vocals):

e|-------------------------------|
B|-----------------------9-/-11--|
G|--7---8--7---8--10--8----------|
D|-------------------------------|
A|-------------------------------|
E|-------------------------------|

GUITAR (Lead):

e|----------------------------------------------------------------|
B|----#-#---#-#--------#---#-#----#-#-#--11--11-#-#-11-#-11---11--|
G|--8-#-#-8-#-#-8-h-10-#-8-#-#----#-#-#--10--10-#-#-10-#-8----9---|
D|----#-#---#-#--------#---#-#-10-#-#-#---------#-#----#----------|
A|----------------------------------------------------------------|
E|----------------------------------------------------------------|

GUITAR (Vocals):

e|-----------------------------------|
B|--------------------8--8-h-9----8--|
G|------7--8--8---10-----------------|
D|--10-------------------------------|
A|-----------------------------------|
E|-----------------------------------|

©2015 by Fefe - Tron544

Sigueme en:

  • YouTube - White Circle
  • Facebook - White Circle
  • Instagram - White Circle
  • Twitter - White Circle
This site was designed with the
.com
website builder. Create your website today.
Start Now