~ HIT IN THE USA ~

TABLATURAS ~ By Fefe - Tron544

 

Intro:

 

GUITAR 1:

 

  /~~~~~~~~~~~~~~~( REPEAT x2 / REPITE x2 )~~~~~~~~~~~~~~~\

e|---------------------------------------------------------|

B|---------------------------------------------------------|

G|--5---------------------------5--------------------------|

D|--5--5--5--3--3--3--3--5--5---5--5--5--3--3--3--3--5--5--|

A|--3--5--5--3--3--3--3--5--5---3--5--5--3--3--3--3--5--5--|

E|-----3--3--1--1--0--1--3--3------3--3--1--1--0--1--3--3--|

 

GUITAR 3:

 

e|--8---------------------------8--------------------------|

B|--8--8--8--6--6--5--6--8--8---8--8--8--6--6--5--6--8--8--|

G|--5--7--7--5--5--4--5--7--7---5--7--7--5--5--4--5--7--7--|

D|-----5--5--3--3--2--3--5--5------5--5--3--3--2--3--5--5--|

A|---------------------------------------------------------|

E|---------------------------------------------------------|

 

GUITAR 1:

 

e|-------------------------------|

B|----------------6--5--5--6--5--|

G|----------------5--5--5--5--5--|

D|--7------7--7------------------|

A|--7------7--7------------------|

E|--5------5--5------------------|

 

GUITAR 3:

 

e|------------------------------------------|

B|--10--x--x--x--x--10--10---6--5--5--6--5--|

G|--8---x--x--x--x--8---8----5--5--5--5--5--|

D|--7---x--x--x--x--7---7-------------------|

A|------------------------------------------|

E|------------------------------------------|

 

 

Verse/Estrofa:

 

GUITAR 1:

 

  /~~~~~~~~~~~~~~( REPEAT x3 / REPITE x3 )~~~~~~~~~~~~~~\

e|-------------------------------------------------------|-------------------------------|

B|-------------------------------------------------------|----------------6--5--5--6--5--|

G|--(5)-x--x--x------------------------------------------|----------------5--5--5--5--5--|

D|--(5)-x--x--x--(5)-x--x--x--(3)-x--x--x--(3)-(3)-5--5--|--7------7--7------------------|

A|--(3)-x--x--x--(5)-x--x--x--(3)-x--x--x--(3)-(3)-5--5--|--7------7--7------------------|

E|---------------(3)-x--x--x--(1)-x--x--x--(0)-(1)-3--3--|--5------5--5------------------|

 

GUITAR 2:

 

e|-----------------------|--------------------------|-----------------------|-------------------------|

B|--5--5-----------------|--5--5--------------------|--5--5-----------------|----------6--5--5--6--5--|

G|--------7--5--5--5--7--|--------7--5--5--5--7--5--|--------7--5--5--5--5--|--7----------------------|

D|-----------------------|--------------------------|-----------------------|-----7-------------------|

A|-----------------------|--------------------------|-----------------------|-------------------------|

E|-----------------------|--------------------------|-----------------------|-------------------------|

 

GUITAR 3:

 

e|-----------------|

B|--6--5--5--6--5--|

G|--5--5--5--5--5--|

D|-----------------|

A|-----------------|

E|-----------------|

 

GUITAR 1:

 

  /~~~~~~~~~~~~~~( REPEAT x3 / REPITE x3 )~~~~~~~~~~~~~~\

e|-------------------------------------------------------|

B|-------------------------------------------------------|

G|--(5)-x--x--x------------------------------------------|

D|--(5)-x--x--x--(5)-x--x--x--(3)-x--x--x--(3)-(3)-5--5--|

A|--(3)-x--x--x--(5)-x--x--x--(3)-x--x--x--(3)-(3)-5--5--|

E|---------------(3)-x--x--x--(1)-x--x--x--(0)-(1)-3--3--|

 

GUITAR 2:

 

e|-----------------------|--------------------------|-----------------------|

B|--5--5-----------------|--5--5--------------------|--5--5-----------------|

G|--------7--5--5--5--7--|--------7--5--5--5--7--5--|--------7--5--5--5--5--|

D|-----------------------|--------------------------|-----------------------|

A|-----------------------|--------------------------|-----------------------|

E|-----------------------|--------------------------|-----------------------|

 

GUITAR 3:

 

  /~~~~~~( REPEAT x2 / REPITE x2 )~~~~~\

e|--------------------------------------|--------------------------------------|

B|--------------------------------------|--------------------------------------|

G|--5--5---4--4--4---5--5---4--5--7--7--|--9--9---7--7--7---5--5---4--5--7--7--|

D|--------------------------------------|--------------------------------------|

A|--3--3---2--2--2---3--3---2--3--5--5--|--7--7---5--5--5---3--3---2--3--5--5--|

E|--------------------------------------|--------------------------------------|

 

GUITAR 1:

 

e|-------------------------------|

B|----------------6--5--5--6--5--|

G|----------------5--5--5--5--5--|

D|--7------7--7------------------|

A|--7------7--7------------------|

E|--5------5--5------------------|

 

GUITAR 2:

 

e|-------------------------|

B|----------6--5--5--6--5--|

G|--7----------------------|

D|-----7-------------------|

A|-------------------------|

E|-------------------------|

 

GUITAR 3:

 

e|---------------------------------------|

B|------------------------6--5--5--6--5--|

G|--9--x--x--x--x--9--9---5--5--5--5--5--|

D|---------------------------------------|

A|--7--x--x--x--x--7--7------------------|

E|---------------------------------------|

 

 

First Chorus/Primer Estribillo:

 

GUITAR 1:

 

e|---------------------------------------------------------|

B|---------------------------------------------------------|

G|--5---------------------------5--------------------------|

D|--5--5--5--3--3--3--3--5--5---5--5--5--3--3--3--3--5--5--|

A|--3--5--5--3--3--3--3--5--5---3--5--5--3--3--3--3--5--5--|

E|-----3--3--1--1--0--1--3--3------3--3--1--1--0--1--3--3--|

 

GUITAR 2:

 

e|-----------------------------------|

B|--5--8-----------------5--5--------|

G|--------7--5--5--5--5--------7--5--|

D|-----------------------------------|

A|-----------------------------------|

E|-----------------------------------|

 

GUITAR 3:

 

e|--8---------------------------8--------------------------|

B|--8--8--8--6--6--5--6--8--8---8--8--8--6--6--5--6--8--8--|

G|--5--7--7--5--5--4--5--7--7---5--7--7--5--5--4--5--7--7--|

D|-----5--5--3--3--2--3--5--5------5--5--3--3--2--3--5--5--|

A|---------------------------------------------------------|

E|---------------------------------------------------------|

 

GUITAR 1:

 

e|----------------------------------------|

B|----------------------------------------|

G|--5-------------------------------------|

D|--5--5--5--3--3--3--3--5--5---6------8--|

A|--3--5--5--3--3--3--3--5--5---6------8--|

E|-----3--3--1--1--0--1--3--3---4------6--|

 

GUITAR 2:

 

e|---------------------------------------------|

B|--5--8-----------------5--5------------------|

G|--------7--5--5--5--5--------7--5----7----8--|

D|---------------------------------------------|

A|---------------------------------------------|

E|---------------------------------------------|

 

GUITAR 3:

 

e|--8-------------------------------------------------------------------------|

B|--8--8--8--6--6--5--6--8--8---9--x--x--9--x--x--9---11--x--x--11--x--x--11--|

G|--5--7--7--5--5--4--5--7--7---8--x--x--8--x--x--8---10--x--x--10--x--x--10--|

D|-----5--5--3--3--2--3--5--5---6--x--x--6--x--x--6---8---x--x--8---x--x--8---|

A|----------------------------------------------------------------------------|

E|----------------------------------------------------------------------------|

 

 

Bridge/Puente:

 

GUITAR 1:

 

e|------------------------------|------------------------------------|

B|------------------------------|------------------------------------|

G|--8------7------5-------------|--8------7------5-------------------|

D|--8------8------5------6---8--|--8------8------5------6--6---5--5--|

A|--6------5------3------6---8--|--6------5------3------6--6---5--5--|

E|-----------------------4---6--|-----------------------4--4---3--3--|

 

GUITAR 2:

 

e|----------------------------------------------|----------------------------------------------|

B|--8--6--8------8--6--8---------8-----8--8-----|--8--6--8------8--6--8---------8-----8--8--5--|

G|-----------8------------8---8-----8--------8--|-----------8------------8---8-----8-----------|

D|----------------------------------------------|----------------------------------------------|

A|----------------------------------------------|----------------------------------------------|

E|----------------------------------------------|----------------------------------------------|

 

GUITAR 3:

 

e|----------------------------------------|---------------------------------------------|

B|--------8---------8---------8---9---11--|--------8---------8---------8---9--9---8--8--|

G|-----8---------7---------8------8---10--|-----8---------7---------8------8--8---7--7--|

D|--8---------8---------8---------6---8---|--8---------8---------8---------6--6---5--5--|

A|----------------------------------------|---------------------------------------------|

E|----------------------------------------|---------------------------------------------|

 

 

Solo:

 

GUITAR 1:

 

e|--------------------------------|-----------------------------|

B|--------------------------------|-----------------------------|

G|--5--------10--10--9--10--9--7--|--5--------------------------|

D|--5--5--5--10--10--9--10--9--7--|--5--5--5--3--3--3--3--5--5--|

A|--3--5--5--8---8---7--8---7--5--|--3--5--5--3--3--3--3--5--5--|

E|-----3--3-----------------------|-----3--3--1--1--0--1--3--3--|

 

GUITAR 3:

 

e|--------8--8--------8--8--------8--8--------8--8--------8--------8--|

B|--------8--8--------8--8--------8--8--------8--8--------8--------8--|

G|--10-b--------10-b--------10-b--------10-b--------10-b-----10-b-----|

D|--------------------------------------------------------------------|

A|--------------------------------------------------------------------|

E|--------------------------------------------------------------------|

 

GUITAR 1:

 

e|------------|

B|------------|

G|------------|

D|--6------8--|

A|--6------8--|

E|--4------6--|

 

GUITAR 3:

 

e|--16----------16-----------18----------18----------20--|

B|------16----------16-----------18----------18----------|

G|----------17----------17-----------19----------19------|

D|-------------------------------------------------------|

A|-------------------------------------------------------|

E|-------------------------------------------------------|

 

 

Second Chorus/Segundo Estribillo:

 

GUITAR 1:

 

e|-----|

B|-----|

G|-----|

D|--6--|

A|--6--|

E|--4--|

 

GUITAR 2:

 

e|----------------------------------------------|

B|--5--8-----------------5--5----------------9--|

G|--------7--5--5--5--5--------7--5------8------|

D|----------------------------------------------|

A|----------------------------------------------|

E|----------------------------------------------|

 

GUITAR 3:

 

e|-----|

B|--9--|

G|--8--|

D|--6--|

A|-----|

E|-----|

 

GUITAR 1:

 

  /~~~~~~~~~~~~~~~( REPEAT x2 / REPITE x2 )~~~~~~~~~~~~~~~\

e|---------------------------------------------------------|

B|---------------------------------------------------------|

G|--5---------------------------5--------------------------|

D|--5--5--5--3--3--3--3--5--5---5--5--5--3--3--3--3--5--5--|

A|--3--5--5--3--3--3--3--5--5---3--5--5--3--3--3--3--5--5--|

E|-----3--3--1--1--0--1--3--3------3--3--1--1--0--1--3--3--|

 

GUITAR 2:

 

e|-----------------------------------|--------------6--6-----6--6--------|

B|--6--9-----------------6--6--------|--6--9--------------9--------9--6--|

G|--------8--6--6--6--6--------8--6--|--------8--6-----------------------|

D|-----------------------------------|-----------------------------------|

A|-----------------------------------|-----------------------------------|

E|-----------------------------------|-----------------------------------|

 

GUITAR 3:

 

  /~~~~~~~~~~~~~~~( REPEAT x2 / REPITE x2 )~~~~~~~~~~~~~~~\

e|--9---------------------------9--------------------------|

B|--9--9--9--7--7--6--7--9--9---9--9--9--7--7--6--7--9--9--|

G|--6--8--8--6--6--5--6--8--8---6--8--8--6--6--5--6--8--8--|

D|-----6--6--4--4--3--4--6--6------6--6--4--4--3--4--6--6--|

A|---------------------------------------------------------|

E|---------------------------------------------------------|

 

GUITAR 1:

 

e|------------------------------------------------|

B|------------------------------------------------|

G|--5---------------------------------------------|

D|--5--5--5--3--3--3--3--5--5---7------9------11--|

A|--3--5--5--3--3--3--3--5--5---7------9------11--|

E|-----3--3--1--1--0--1--3--3---5------7------9---|

 

GUITAR 2:

 

e|----------------------------------------------------|

B|--6--9-----------------6--6----------------------6--|

G|--------8--6--6--6--6--------8--6--6------8---------|

D|----------------------------------------------------|

A|----------------------------------------------------|

E|----------------------------------------------------|

 

GUITAR 3:

 

e|--9-------------------------------------------------------------16--21--|

B|--9--9--9--7--7--6--7--9--9-------17-----------19-----------18----------|

G|--6--8--8--6--6--5--6--8--8---14------14---16------16---18--------------|

D|-----6--6--4--4--3--4--6--6---------------------------------------------|

A|------------------------------------------------------------------------|

E|------------------------------------------------------------------------|

 

GUITAR 1:

 

e|--6--|

B|--6--|

G|--6--|

D|--6--|

A|-----|

E|-----|

Hit in the USA - Tron544
00:00 / 00:00

©2019 by Fefe - Tron544

Sigueme en:

  • YouTube - White Circle
  • Facebook - White Circle
  • Instagram - White Circle
  • Twitter - White Circle
This site was designed with the
.com
website builder. Create your website today.
Start Now