~ HIKARU NARA ~

ACORDES ~ By Fefe - Tron544

 

Chords used/Acordes utilizados:
 
A: x.0.2.2.2.0
B: x.2.4.4.4.2  -  Bm: x.2.4.4.3.2
C#: x.4.6.6.6.4  -  C#m: x.4.6.6.5.4
D: x.x.0.2.3.2
E: 0.2.2.1.0.0
F#m: 2.4.4.2.2.2  -  F#m8: x.9.11.11.10.9
 
 
Intro:

| D - E | C# - F#m | F#m8 |

 

| D | E | F#m | C#m | D |

 


Verse/Estrofa:

 

A                   E                     F#m     C#m      D
   Ameagari no niji mo   Rin to saita hana mo   Irozuki afuredasu
Bm      C#       F#m    B          Bm         C# 
   Akaneiro no sora   Aogu kimi ni ano hi koi ni ochita

 


Pre-Chorus/Pre-Estribillo:

 

D             C#m     Bm               A
Shunkan no DRAMATIC   FILM no naka no hitokoma mo
Bm        C#m     D     C#
Kienai yo kokoro ni kizamu kara

 


Chorus/Estribillo:

 

 D       E        F#m        D     E     F#m
Kimi da yo   Kimi nanda yo   Oshiete kureta
 D     E      F#m          D      E      F#m
Kurayami mo hikaru nara   Hoshizora ni naru
 D      E    F#m         D      E    F#m
Kanashimi wo egao ni   Mou kakusanai de
 D     E    C#       F#m                   F#m8
Kirameku donna hoshi mo   Kimi wo terasu kara

 


Outro:

 

 D   E   F#m        D     E   F#m
Nigirishimeta sono kibou mo fuan mo
       D   E    C#  F#m      D       E     F#m
Kitto futari wo ugokasu   Hikari ni naru kara

 

 

 

TABLATURAS ~ By Fefe - Tron544

 

Intro:

 

e|---------------------------------------------------------------------|
B|--10--9--10--10-/-12--10--12--12-/-15--14--12--10----------------12--|
G|-----------------------------------------------------11--13--14------|
D|---------------------------------------------------------------------|
A|---------------------------------------------------------------------|
E|---------------------------------------------------------------------|

 

e|---------------------------------------------------------------------|
B|--------------12-------------------12------12-h-14---15--14--12------|
G|--14--13--14------14---14--13--14------14------------------------14--|
D|---------------------------------------------------------------------|
A|---------------------------------------------------------------------|
E|---------------------------------------------------------------------|

 

e|--------------------------------------------------------|
B|--------------------------------------------------------|
G|--14--13--11----------11--13-/-14--13--11--13--13-/-14--|
D|--------------12--14------------------------------------|
A|--------------------------------------------------------|
E|--------------------------------------------------------|

 


Verse/Estrofa:

 

GUITAR 1:

 

e|------------------------------------------------------------------------------------|
B|------------------------------------------------------------------------------------|
G|------------------------------------------------------------------------------------|
D|------11--12--14--14---12--11--------------------------11--12--12---11--------------|
A|--12---------------------------12--12-h-14----12-h-14-------------------14--11--12--|
E|------------------------------------------------------------------------------------|

 

e|------------------------------------------------------------------------------------|
B|------------------------------------------------------------------------------------|
G|------11----------------------------------------------------------------------------|
D|----------14--12--11---------------11--11------11-h-12--12--12--11--------------14--|
A|--12------------------14--12-h-14-----------------------------------14--12--14------|
E|------------------------------------------------------------------------------------|

 

GUITAR 2:

 

e|----------------------------|
B|----------------------------|
G|--------11------------------|
D|--14--------14--12--11--12--|
A|----------------------------|
E|----------------------------|

 

GUITAR 1:

 

e|------------------------------------------------------------------|
B|------------------------------------------------------------------|
G|----------14------------------------------------------------------|
D|--12--14------11------------11-h-12--11--------------11---11------|
A|------------------14--12-----------------14--12--12-----------14--|
E|------------------------------------------------------------------|

 

GUITAR 2:

 

e|------------------------------|
B|--10--9--10--9---10--9--7--6--|
G|------------------------------|
D|------------------------------|
A|--7---6--7---6---7---6--4--3--|
E|------------------------------|

 


Pre-Chorus/Pre-Estribillo:

 

GUITAR 1:

 

e|-----------------------------------------------------------------------------------|
B|-----------------------------------------------------------------------------------|
G|-----------------------------------------------------------------------------------|
D|--14--14--14--14--14--14--14-----------14--14--14--14--14--14--14--------------11--|
A|------------------------------12--12-------------------------------12--12--14------|
E|-----------------------------------------------------------------------------------|

 

GUITAR 2:

 

e|--------------------------------------------------------|
B|--------------------------------------------------------|
G|--------------------------------------------------------|
D|--------------------------------------------------------|
A|--5--5--4--5----4--4--2--4----2--2--0--2----------------|
E|--------------------------------------------5--5--4--5--|

 

GUITAR 1:

 

e|------------------------------------------------------------------------|
B|------------------------------------------------------------------------|
G|----------------------------------11------11-h-13--11--10--11--11-/-13--|
D|----------------------11--12--14----------------------------------------|
A|--14--14--12--14--12----------------------------------------------------|
E|------------------------------------------------------------------------|

 

GUITAR 2:

 

e|--(2)-x--2---x--x--2---(4)-x--4---x--x--4---(5)-x--x--x---x--x--x--x---x--x--x--x---x--x--x--x------------|
B|--(3)-x--3---x--x--3---(5)-x--5---x--x--5---(7)-x--x--x---x--x--x--x---x--x--x--x---x--x--x--x---6--7--9--|
G|--(4)-x--4---x--x--4---(6)-x--6---x--x--6---(7)-x--x--x---x--x--x--x---x--x--x--x---x--x--x--x------------|
D|--(4)-x--4---x--x--4---(6)-x--6---x--x--6---(7)-x--x--x---x--x--x--x---x--x--x--x---x--x--x--x---3--4--6--|
A|--(2)-x--2---x--x--2---(4)-x--4---x--x--4---(5)-x--x--x---x--x--x--x---x--x--x--x---x--x--x--x------------|
E|----------------------------------------------------------------------------------------------------------|

 


Chorus/Estribillo:

 

GUITAR 1:

 

e|-----------------------------------------------------------------------------|
B|--------------12----------12----------------------------12------12--12-/-14--|
G|--14--13--14------------------14--13--14----14--13--14------14---------------|
D|------------------14--14-----------------------------------------------------|
A|-----------------------------------------------------------------------------|
E|-----------------------------------------------------------------------------|

 

GUITAR 2:

 

e|--------------------------------|
B|--------------------------------|
G|--14------14--13---14--13---14--|
D|--------------------------------|
A|--------------------------------|
E|--------------------------------|

 

GUITAR 1:

 

e|-----------------------------------------------------------------------------|
B|--------------12----------12----------------12-h-14--14--14--12--------------|
G|--14--13--14------------------14--13--14-------------------------14--13--11--|
D|------------------14--14-----------------------------------------------------|
A|-----------------------------------------------------------------------------|
E|-----------------------------------------------------------------------------|

 

GUITAR 2:

 

e|--------------------------------------|
B|--------------------------------------|
G|--14------11------11--14--11------11--|
D|--------------14--------------14------|
A|--------------------------------------|
E|--------------------------------------|

 

GUITAR 1:

 

e|----------------------------------------------------------------12----------|
B|--------------12----------12--------------------------------12------15--14--|
G|--14--13--14------------------14--13--14--------14--14--14------------------|
D|------------------14--14--------------------14------------------------------|
A|----------------------------------------------------------------------------|
E|----------------------------------------------------------------------------|

 

GUITAR 2:

 

e|--------------------------------------|
B|----------------------12--------------|
G|--14------14--13--14------14--13--14--|
D|--------------------------------------|
A|--------------------------------------|
E|--------------------------------------|

 

GUITAR 1:

 

e|-----------------------------------------------------------------------------|
B|--12-h-14--14--14--12------12--14--15--14--------14--14--14--12--------------|
G|-----------------------14--------------------14------------------14--13--11--|
D|-----------------------------------------------------------------------------|
A|-----------------------------------------------------------------------------|
E|-----------------------------------------------------------------------------|

 

GUITAR 2:

 

e|--------------------------------------------------|
B|--------------------------------------------------|
G|--13--14------------------------------11--13--14--|
D|--------------------------11--12--14--------------|
A|--------------11--12--14--------------------------|
E|--------------------------------------------------|

 


Outro:

 

GUITAR 1:

 

e|----------------------------------------------------------------------------|
B|----------------------------------------------------------------------------|
G|--14--13--14--13--14--13--11------11--11------11-------11------11---11--13--|
D|------------------------------14----------14-------14------14---------------|
A|----------------------------------------------------------------------------|
E|----------------------------------------------------------------------------|

 

e|--------------------------------------------------------------|
B|------------------------------12--14--14--14--12--------------|
G|--14--13--14--13--14--13--14----------------------14--13--11--|
D|--------------------------------------------------------------|
A|--------------------------------------------------------------|
E|--------------------------------------------------------------|

 

GUITAR 2:

 

e|--------------------------|
B|--------------------------|
G|--13--14------14--13--11--|
D|--------------------------|
A|--------------------------|
E|--------------------------|

 

 

Hikaru Nara - Tron544
00:00 / 00:00

©2019 by Fefe - Tron544

Sigueme en:

  • YouTube - White Circle
  • Facebook - White Circle
  • Instagram - White Circle
  • Twitter - White Circle
This site was designed with the
.com
website builder. Create your website today.
Start Now