~ HIKARI (ROCK VERSION) ~

TABLATURAS ~ By Fefe - Tron544

 

Intro:

 

  /~~~REPEAT~x3~/~REPITE~x3~~\

e|----------------------------|

B|------13-b--13--11--10--11--|

G|--12------------------------|

D|----------------------------|

A|----------------------------|

E|----------------------------|

 

e|--------------------------------11--10--------------|

B|------------------11--10--11------------11--10--11--|

G|--10--10--10--10------------------------------------|

D|----------------------------------------------------|

A|----------------------------------------------------|

E|----------------------------------------------------|

 

e|--13--11--10------10--11--10------------------8--10----11------|

B|--------------13--------------8--11----8--11---------------13--|

G|---------------------------------------------------------------|

D|---------------------------------------------------------------|

A|---------------------------------------------------------------|

E|---------------------------------------------------------------|

 

 

Verse/Estrofa:

 

e|------------------|---------------------------------|

B|-----10---11--11--|------10--11---11---11-/-13------|

G|-10---------------|--10-------------------------12--|

D|------------------|---------------------------------|

A|------------------|---------------------------------|

E|------------------|---------------------------------|

 

e|----------------------------------------------------------------------|

B|------10---11--13-\-11----10-h-11-p-10-h-11-p-10-h-11-p-10-h-11-p-10--|

G|--10------------------------------------------------------------------|

D|----------------------------------------------------------------------|

A|----------------------------------------------------------------------|

E|----------------------------------------------------------------------|

 

e|--------------------------------------------|

B|------10--11--11----10-h-11-p-10-h-11-p-10--|

G|--10----------------------------------------|

D|--------------------------------------------|

A|--------------------------------------------|

E|--------------------------------------------|

 

 

Pre-Chorus/Pre-Estribillo:

 

e|-----------------------------------------------------------------------------|

B|-----------------------------------------------------------------------------|

G|--------------------------7--8---------------------------------7--8----------|

D|-10--8--10--8--10--8--10--------10----9--7--9--7--9--7--9--10--------10--10--|

A|-----------------------------------------------------------------------------|

E|-----------------------------------------------------------------------------|

 

e|----------------------------------------------------------------|

B|----------------------------------------------------------------|

G|----------8--12---------------------------------------7--8--10--|

D|--10--10-----------10--8--10---10--8--10---10--8--10------------|

A|----------------------------------------------------------------|

E|----------------------------------------------------------------|

 

e|-------------------------|-----------------------------------------------------------|

B|-------------------------|-----------------------------------------------------------| 

G|--12----10---------------|--13--12------------------8----------8---------12--12--12--|

D|------------10----10--9--|----------8--10----8--10------8--10-----10------9----------|

A|-------------------------|-----------------------------------------------------------|

E|-------------------------|-----------------------------------------------------------|

 

 

Chorus/Estribillo:

 

  /~~~REPEAT~x3~/~REPITE~x3~~\

e|----------------------------|--------------------------------11--10--------------|

B|------13-b--13--11--10--11--|------------------11--10--11------------11--10--11--|

G|--12------------------------|--10--10--10--10------------------------------------|

D|----------------------------|----------------------------------------------------|

A|----------------------------|----------------------------------------------------|

E|----------------------------|----------------------------------------------------|

 

e|--13--11--10------10--11--10------------------8--10----11------|

B|--------------13--------------8--11----8--11---------------13--|

G|---------------------------------------------------------------|

D|---------------------------------------------------------------|

A|---------------------------------------------------------------|

E|---------------------------------------------------------------|

 

 

Bridge/Puente:

 

e|------13-------------13--13--13--13-b--13--11--10--11--13---------|

B|--11--------11-11------------------------------------------11-11--|

G|------------------------------------------------------------------|

D|------------------------------------------------------------------|

A|------------------------------------------------------------------|

E|------------------------------------------------------------------|

 

e|------------11--10--11--13--10----10-h-11-p-10-h-11-p-10-h-11--|

B|------11-------------------------------------------------------|

G|--12-----------------------------------------------------------|

D|---------------------------------------------------------------|

A|---------------------------------------------------------------|

E|---------------------------------------------------------------|

 

 

e|-------------------------------------------------------------------|------------------10------11--10--|

B|--11--10--11-------10--11------------------------------------------|------11--------------13----------|

G|---------------10----------10----------------------10--10--12--10--|--12----------10------------------|

D|-------------------------------13--12--13--12--13------------------|----------------------------------|

A|-------------------------------------------------------------------|----------------------------------|

E|-------------------------------------------------------------------|----------------------------------|

 

 

Chorus/Estribillo:

 

  /~~~REPEAT~x3~/~REPITE~x3~~\

e|----------------------------|--------------------------------11--10--------------|

B|------13-b--13--11--10--11--|------------------11--10--11------------11--10--11--|

G|--12------------------------|--10--10--10--10------------------------------------|

D|----------------------------|----------------------------------------------------|

A|----------------------------|----------------------------------------------------|

E|----------------------------|----------------------------------------------------|

 

e|--13--11--10------10--11--10------------------8--10----11------------|

B|--------------13--------------8--11----8--11---------------13----11--|

G|---------------------------------------------------------------------|

D|---------------------------------------------------------------------|

A|---------------------------------------------------------------------|

E|---------------------------------------------------------------------|

 

 

Outro:

         

e|----------------------------------------8------|

B|---------8--10--11-----------8--10--11-----11--|

G|--8--10---------------8--10--------------------|

D|-----------------------------------------------|

A|-----------------------------------------------|

E|-----------------------------------------------|

 

e|--11--11--11--14--11--11--11--14--11--11--11--14--16--14--11--13------------|

B|----------------------------------------------------------------------------|

G|----------------------------------------------------------------------------|

D|----------------------------------------------------------------------8--8--|

A|----------------------------------------------------------------------8--8--|

E|----------------------------------------------------------------------6--6--|

Hikari (Rock Version) - Tron544
00:00 / 00:00

©2019 by Fefe - Tron544

Sigueme en:

  • YouTube - White Circle
  • Facebook - White Circle
  • Instagram - White Circle
  • Twitter - White Circle
This site was designed with the
.com
website builder. Create your website today.
Start Now