HIGHSCHOOL OF THE DEAD

HIGHSCHOOL OF THE DEAD

TABS ~ By Fefe (Tron544)

 

Intro:

GUITAR (Rhythm):

e|-----------------------------------|
B|-----------------------------------|
G|-----------------------------------|
D|--2--------------------------------|
A|--2--------------------------------|
E|--0--------------------------------|

GUITAR (Lead):

e|---------------------------------------------------------|
B|---------------------------------------------------------|
G|------7-9--9-9--------------------7-9--9-9---------------|
D|--9-9----------7--7-7-8--8-8--9-9---------7--7-7-8--8-8--|
A|---------------------------------------------------------|
E|---------------------------------------------------------|

BASS:

G|----------------------------------------|
D|----------------------------------------|
A|-------------------7(NH)----------------|
E|--0-------------------------------------|

GUITAR (Rhythm):

e|----------------------------------------------------|
B|----------------------------------------------------|
G|----------------------------------------------------|
D|--2-------2----2-----2-------7--7-7-8--8-8----------|
A|--2-------2----2-----2-------7--7-7-7--7-7----------|
E|--0-------0----0-----0-------5--5-5-6--6-6----------|

GUITAR (Lead):

e|-----------------------------------------------------------------|
B|-----------------------------------------------------------------|
G|------7-9--9-9--------------------7-9--9-9-----------------------|
D|--9-9----------7--7-7-8--8-8--9-9---------7--7-7-8--8-8----------|
A|-----------------------------------------------------------------|
E|-----------------------------------------------------------------|

BASS:

G|----------------------------------------------------|
D|----------------------------------------------------|
A|----------------------------------------------------|
E|--0-------0----0-----0-------5--5-5-6--6-6----------|

GUITAR (Rhythm):

e|-----|-----------------------------------------------------------|
B|-----|-----------------------------------------------------------|
G|-----|------------#-5--5-5--5-5----------------------------------|
D|--2--|---2-2--2-2-#-5--5-5--5-5-#-5--5-5--5-5-#-4--4-4--4-4-#-2--|
A|--2--|---2-2--2-2-#-3--3-3--3-3-#-5--5-5--5-5-#-5--5-5--5-5-#-2--|
E|--0--|---0-0--0-0---------------#-3--3-3--3-3-#-2--2-2--2-2-#-0--|

GUITAR (Lead):

e|-----|-------------------10---------------------8--7-----------|
B|--8--|---8-10-8-8---8--8----8-8---8--8-#-7--7-#-------8--7--8--|
G|-----|---------------------------------------------------------|
D|-----|---------------------------------------------------------|
A|-----|---------------------------------------------------------|
E|-----|---------------------------------------------------------|

BASS:

G|-----|---------------------------------------------------------------|
D|-----|---------------------------------------------------------------|
A|-----|---------------3--3-3-3-3-3-3----------------------------------|
E|--0--|---0-0-0-0-0-0----------------3--3-3-3-3-3-3-2--2-2-2-2-2-2-0--|

GUITAR (Rhythm):

e|---------------------------------------------------------|
B|---------------------------------------------------------|
G|------------#-5--5-5--5-5--------------------------------|
D|---2-2--2-2-#-5--5-5--5-5-#-5--5-5--5-5-#-4--4-4-4-4-4---|
A|---2-2--2-2-#-3--3-3--3-3-#-5--5-5--5-5-#-5--5-5-5-5-5---|
E|---0-0--0-0---------------#-3--3-3--3-3-#-2--2-2-2-2-2---|

GUITAR (Lead):

e|-------------------10-------15/17--17-17-15------------13-/15----|
B|---8-10-8-8---8--8----8-8----------------------13--12------------|
G|-----------------------------------------------------------------|
D|-----------------------------------------------------------------|
A|-----------------------------------------------------------------|
E|-----------------------------------------------------------------|

BASS:

G|--------------------------------------------------------------|
D|--------------------------------------------------------------|
A|---------------3--3-3-3-3-3-3-------------------------5/9-9---|
E|---0-0-0-0-0-0----------------3--3-3-3-3-3-3-2--2-2-2---------|

 


Verse/Estrofa:

GUITAR (Vocals):

e|---------------------------------------------|
B|-----------------------------------7----5/7--|
G|--7------5-5-\4--------------7--9------------|
D|---------------------------------------------|
A|---------------------------------------------|
E|---------------------------------------------|

GUITAR (Rhythm):

e|--0--------------------------------------|
B|--0-----------------------------------0--|
G|--0-----------------------------------0--|
D|--2-----------------------------------0--|
A|--2----------------7(NH)-----------------|

E|--0----------------7(NH)-----------------|

BASS:

G|----------------------------------------|
D|----------------------------------------|
A|-----------------2-/7----------4--5--7--|
E|--0-------------------------------------|

GUITAR (Vocals):

e|------------------------------------------------------|
B|---------7/8--------8--8/10----8----7----8--8/10--\8--|
G|------9-----------------------------------------------|
D|------------------------------------------------------|
A|------------------------------------------------------|
E|------------------------------------------------------|

GUITAR (Rhythm):

e|--------------------------------------------------|
B|--10b----10p8-10----------------------------------|
G|-----------------------------7--------9--7-----9--|
D|------------------------7/9-----------------9-----|
A|--------------------------------------------------|
E|--------------------------------------------------|

BASS:

G|-------------------------------------------------------|
D|-------------------------------------------------------|
A|-------------------------------------------------------|
E|--5--------3---5---3--7-7-7-7-7-7-7-7-7-7-7-7-7-7-7-7--|

GUITAR (Vocals):

e|-----------10-----------------------10-----------------|
B|--8------8------8--7----7/8-------8------8--7--8/10-8--|
G|----------------------9--------------------------------|
D|-------------------------------------------------------|
A|-------------------------------------------------------|
E|-------------------------------------------------------|

GUITAR (Rhythm):

e|-----------------------------------------------------------|
B|-----------------------------------------------------------|
G|----------------7-7--7-7-7--7-5-5--5-5-5--5-7-7--7-7-7--7--|
D|--2-2--2-2-2--2-7-7--7-7-7--7-5-5--5-5-5--5-7-7--7-7-7--7--|
A|--2-2--2-2-2--2-5-5--5-5-5--5-3-3--3-3-3--3-5-5--5-5-5--5--|
E|--0-0--0-0-0--0--------------------------------------------|

BASS:

G|-----------------------------------------------------------|
D|-----------------------------------------------------------|
A|----------------5-5--5-5-5--5-3-3--3-3-3--3-5-5--5-5-5--5--|
E|--0-0--0-0-0--0--------------------------------------------|

GUITAR (Vocals):

e|-------------------------------------------------------|
B|--------8-8--8--7h8--7--5/7------7-8-10---10/12---10---|
G|-------------------------------------------------------|
D|-------------------------------------------------------|
A|-------------------------------------------------------|
E|-------------------------------------------------------|

GUITAR (Rhythm):

e|------------------------------------------------------|
B|------------------------------------------------------|
G|----------------5-5--5-5-5--5-7-7--7-7-7--4---4---4---|
D|--2-2--2-2-2--2-5-5--5-5-5--5-7-7--7-7-7--4---4---4---|
A|--2-2--2-2-2--2-3-3--3-3-3--3-5-5--5-5-5--2---2---2---|
E|--0-0--0-0-0--0---------------------------------------|

BASS:

G|------------------------------------------------------|
D|------------------------------------------------------|
A|----------------3-3--3-3-3--3-5-5--5-5-5--2---2---2---|
E|--0-0--0-0-0--0---------------------------------------|

 

Pre-Chorus/Pre-Estribillo:

GUITAR (Vocals):

e|---------------------------------------------------------------------------|
B|--8--8-8-8-8--7--8--8/10----10-10/12--12-12-12-12-12-13--12--10--12-10/12--|
G|---------------------------------------------------------------------------|
D|---------------------------------------------------------------------------|
A|---------------------------------------------------------------------------|
E|---------------------------------------------------------------------------|

GUITAR (Rhythm):

e|------------------------------------------|
B|--5--------------5----------5-------------|
G|--5-----------------7---------------------|
D|--5---------------------5-----------------|
A|--3----------------------------------12\--|
E|------------------------------------------|

BASS:

G|-------------------------------------------------------------------------------------|
D|----------------------------------5/10-10-10-10-10-10-10-10-12-12-12-12-12-12-12-12--|
A|--3-3-3-3-3-3-3-3-3-3-3-3-3-3-3-3----------------------------------------------------|
E|-------------------------------------------------------------------------------------|

GUITAR (Vocals):

e|------------------10--------------------|
B|--------------10--------8----7----------|
G|----------------------------------------|
D|----------------------------------------|
A|----------------------------------------|
E|----------------------------------------|

GUITAR (Rhythm):

e|---------------------------------------------------------------------|
B|---------------------------------------------------------------------|
G|--2--x-x-x-x-x-x-(4)-x-x-x-x-x-x-x-(5)-x-5-5-5-5-5-4--4-4-4-4-4-4-4--|
D|--2--x-x-x-x-x-x-(4)-x-x-x-x-x-x-x-(5)-x-5-5-5-5-5-4--4-4-4-4-4-4-4--|
A|--0--x-x-x-x-x-x-(2)-x-x-x-x-x-x-x-(3)-x-3-3-3-3-3-2--2-2-2-2-2-2-2--|
E|---------------------------------------------------------------------|

BASS:

G|----------------------------------------------------------------------|
D|-----------------------------------------------------------4/9-9-9-9--|
A|--0-0-0-0-0-0-0-0-0-2-2-2-2-2-2-2-2-3-3-3-3-3-3-3-2--2-2-2------------|
E|----------------------------------------------------------------------|

Highschool of the Dead - Tron544
00:00 / 00:00
DONATE%20BUTTON%20(EN)_edited.png

Chorus/Estribillo:

GUITAR (Vocals):

e|--------|--------------------------------------------------------------------|
B|--------|--12/13-------\12-10h12------------12--12-10--12--12/15-------------|
G|--12----|---------------------------------------------------------11--11/12--|
D|--------|--------------------------------------------------------------------|
A|--------|--------------------------------------------------------------------|
E|--------|--------------------------------------------------------------------|

GUITAR (Rhythm):

e|---------------------------------------------------------------|
B|---------------------------------------------------------------|
G|-----------------5--5-5-5-5-5-5----------------7--7-7-7-7-7-5--|
D|--2--2-2-2-2-2-2-5--5-5-5-5-5-5-5--5-5-5-5-5-5-7--7-7-7-7-7-5--|
A|--2--2-2-2-2-2-2-3--3-3-3-3-3-3-5--5-5-5-5-5-5-5--5-5-5-5-5-3--|
E|--0--0-0-0-0-0-0----------------3--3-3-3-3-3-3-----------------|

GUITAR (Lead):

e|------------------------10/12--12---17/18--17---15--15--17--17------|
B|-----12-12-12-11-10--8--------------------------17--17--17--17--15--|
G|--------------------------------------------------------------------|
D|--------------------------------------------------------------------|
A|--------------------------------------------------------------------|
E|--------------------------------------------------------------------|

BASS:

G|-------------------------------------------------------------------|
D|-------------------------------------------------------------------|
A|------------------3-3-3-3-3-3-3-3-----------------5-5-5-5-5-5-5-3--|
E|--0-0-0-0-0-0-0-0-----------------3-3-3-3-3-3-3-3------------------|

GUITAR (Vocals):

e|--------------------------------------------------------------------|
B|---------------------------------------------------10------10-------|
G|------12-12-12-11--12---12-12-12-11--12---12-12-12-----12-------12--|
D|--------------------------------------------------------------------|
A|--------------------------------------------------------------------|
E|--------------------------------------------------------------------|

GUITAR (Rhythm):

e|--------------------------------------------------------------|
B|--------------------------------------------------------------|
G|---5-5--5-5-5-5-4--4-4-4-4-4-4-5--5-5-5-5-5-5-4--4-4-4-4-4-4--|
D|---5-5--5-5-5-5-4--4-4-4-4-4-4-5--5-5-5-5-5-5-4--4-4-4-4-4-4--|
A|---3-3--3-3-3-3-2--2-2-2-2-2-2-3--3-3-3-3-3-3-2--2-2-2-2-2-2--|
E|--------------------------------------------------------------|

GUITAR (Lead):

e|--------------------------------------------------------------17-------17---------|
B|---15-15-p13-13---12----11--10--11--h12-12-/15-15-/17-17-17b-----17(b)----17(b)---|
G|----------------------------------------------------------------------------------|
D|----------------------------------------------------------------------------------|
A|----------------------------------------------------------------------------------|
E|----------------------------------------------------------------------------------|

BASS:

G|--------------------------------------------------------------------|
D|---------------------------------------------------------4/9-9-9-9--|
A|---3-3-3-3-3-3-3-2-2-2-2-2-2-2-2-3-3-3-3-3-3-3-3-2-2-2-2------------|
E|--------------------------------------------------------------------|

GUITAR (Vocals):

e|----------------------------------------------------------------------|
B|--12/13-------\12-10h12------------12-12-12-10--12--12/15-------------|
G|-----------------------------------------------------------11--11/12--|
D|----------------------------------------------------------------------|
A|----------------------------------------------------------------------|
E|----------------------------------------------------------------------|

GUITAR (Rhythm):

e|---------------------------------------------------------------|
B|---------------------------------------------------------------|
G|-----------------5--5-5-5-5-5-5----------------7--7-7-7-7-7-5--|
D|--2--2-2-2-2-2-2-5--5-5-5-5-5-5-5--5-5-5-5-5-5-7--7-7-7-7-7-5--|
A|--2--2-2-2-2-2-2-3--3-3-3-3-3-3-5--5-5-5-5-5-5-5--5-5-5-5-5-3--|
E|--0--0-0-0-0-0-0----------------3--3-3-3-3-3-3-----------------|

GUITAR (Lead):

e|--15----15----17----17----18----17----15---18--18--17--17--15-----------------------|
B|-----17----17----17----17----17----17----------------------------10/12-12-12-12-11--|
G|------------------------------------------------------------------------------------|
D|------------------------------------------------------------------------------------|
A|------------------------------------------------------------------------------------|
E|------------------------------------------------------------------------------------|

BASS:

G|-------------------------------------------------------------------|
D|-------------------------------------------------------------------|
A|------------------3-3-3-3-3-3-3-3-----------------5-5-5-5-5-5-5-3--|
E|--0-0-0-0-0-0-0-0-----------------3-3-3-3-3-3-3-3------------------|

GUITAR (Vocals):

e|--------------------------------------------------------------------------|
B|---------------------------------------------------10------10--12--10/12--|
G|------12-12-12-11--12---12-12-12-11--12---12-12-12-----12-----------------|
D|--------------------------------------------------------------------------|
A|--------------------------------------------------------------------------|
E|--------------------------------------------------------------------------|

GUITAR (Rhythm):

e|--------------------------------------------------------------|
B|--------------------------------------------------------------|
G|---5-5--5-5-5-5-4--4-4-4-4-4-4-5--5-5-5-5-5-5-4--4-4-4-4-4-4--|
D|---5-5--5-5-5-5-4--4-4-4-4-4-4-5--5-5-5-5-5-5-4--4-4-4-4-4-4--|
A|---3-3--3-3-3-3-2--2-2-2-2-2-2-3--3-3-3-3-3-3-2--2-2-2-2-2-2--|
E|--------------------------------------------------------------|

GUITAR (Lead):

e|------------------------------10/12----10----17----18------|
B|---10--8--10--10/12--11--10--------------------------------|
G|-----------------------------------------------------------|
D|-----------------------------------------------------------|
A|-----------------------------------------------------------|
E|-----------------------------------------------------------|

BASS:

G|--------------------------------------------------------------------|
D|---------------------------------------------------------4/9-9-9-9--|
A|---3-3-3-3-3-3-3-2-2-2-2-2-2-2-2-3-3-3-3-3-3-3-3-2-2-2-2------------|
E|--------------------------------------------------------------------|

 


Outro:

GUITAR (Rhythm):

e|------------------------------------------------|
B|------------------------------------------------|
G|--------7--9------7--9------7--5--5-5--7-7-7-7--|
D|--2-----7--9------7--9------7--5--5-5--7-7-7-7--|
A|--2-----5--7------5--7------5--3--3-3--5-5-5-5--|
E|--0---------------------------------------------|

GUITAR (Lead):

e|-------------------------------------------------------------|
B|-------------------------------------------------------------|
G|-------------------------------------------------------------|
D|----9-8-7----------9-8-7----------9-8-7----------------------|
A|--7-------10-5--7--------10-5--7--------10-5--6--6-6-7--7-7--|
E|-------------------------------------------------------------|

©2015 by Fefe - Tron544

Sigueme en:

  • YouTube - White Circle
  • Facebook - White Circle
  • Instagram - White Circle
  • Twitter - White Circle
This site was designed with the
.com
website builder. Create your website today.
Start Now