~ HERE COMES A THOUGHT ~

TABLATURAS ~ By Fefe - Tron544

 

Intro:

 

UKULELE:

 

A|--7------7--7----5--|--7------7--5----2-----------2-----|
E|--5------5--4----4--|--5------5--4----1-----1--------1--|
C|--5------5--4----4--|--5------5--5----2--------2--------|
G|--5------5--4----4--|--5------5--4----0--0--------------|

 

GUITAR:

 

  /~~~~~~~~~~~~( REPEAT x2 / REPITE x2 )~~~~~~~~~~~~\
e|---------------------------------------------------|
B|--------------8------------------------8-----------|
G|--9--9--9--9-----9--7--7---9--9--9--9-----9--7--7--|
D|---------------------------------------------------|
A|---------------------------------------------------|
E|---------------------------------------------------|

 


First Verse/Primera Estrofa:

 

UKULELE:

 

A|--5---3--2--0------------0---------------5---3--2--0--2---------|
E|-------------------0-----------0-----0-----------------------0--|
C|----------------------0-----------0-----------------------------|
G|----------------0-----------0-----------------------------0-----|

 

GUITAR:

 

e|------------------------------------|
B|------------------------------------|
G|--7-----------------7---------------|
D|------10--9--7---------10--9--7--9--|
A|------------------------------------|
E|------------------------------------|

 

UKULELE:

 

A|------7------------7------------7------------5--------|
E|---------5------------5------------4------------4-----|
C|--5---------5--5---------5--4---------4--4---------4--|
G|------5------------5------------4------------4--------|

 

GUITAR:

 

e|-------------------------------------|
B|-------------------------------------|
G|--9---7-------------9--7-------------|
D|---------10--9------------10--9--10--|
A|-------------------------------------|
E|-------------------------------------|

 

UKULELE:

 

A|--5---3--2--0------------0---------------5---3--2--0--2---------|
E|-------------------0-----------0-----0-----------------------0--|
C|----------------------0-----------0-----------------------------|
G|----------------0-----------0-----------------------------0-----|

 

GUITAR:

 

e|----------------------------------------|
B|----------------------------------------|
G|--7---------------------7---------------|
D|------10--9--7-------------10--9--7--9--|
A|--------------------10------------------|
E|----------------------------------------|

 

UKULELE:

 

A|------7------------7------------7------------5--------|
E|---------5------------5------------4------------4-----|
C|--5---------5--5---------5--4---------4--4---------4--|
G|------5------------5------------4------------4--------|

 

GUITAR:

 

e|--------------------------------------------|
B|--------------------------------------------|
G|--9---7----------------9--7-----------------|
D|---------10--9---------------10--9--10------|
A|------------------10--------------------10--|
E|--------------------------------------------|

 

UKULELE:

 

A|------3------------3------------3------------2-------------2------------2------------3------------3--------|
E|---------1------------1------------1------------1-------------0------------0------------2------------2-----|
C|--2---------2--2---------2--2---------2--2---------2---0---------0--0---------0--3---------3--3---------3--|
G|------2------------2------------0------------0-------------0------------0------------2------------2--------|

 

GUITAR:

 

e|----------------7----------------7--7------10--8--7------7-h-8-------7--8--7------|
B|--8------8--10-----8------8--10----------------------10----------10-----------10--|
G|----------------------------------------------------------------------------------|
D|----------------------------------------------------------------------------------|
A|----------------------------------------------------------------------------------|
E|----------------------------------------------------------------------------------|

 

UKULELE:

 

A|------3------------3------------3------------2-------------3------------3------------3------------2--------|
E|---------1------------1------------1------------1-------------1------------1------------1------------1-----|
C|--2---------2--2---------2--2---------2--2---------2---2---------2--2---------2--2---------2--2---------2--|
G|------2------------2------------0------------0-------------2------------2------------0------------0--------|

 

GUITAR:

 

e|--------8-------------------------8---------------------|
B|------------10------------------------10----------------|
G|--10-------------10---9----7---------------10---9----7--|
D|--------------------------------------------------------|
A|--------------------------------------------------------|
E|--------------------------------------------------------|

 


First Pre-Chorus/Primer Pre-Estribillo:

 

UKULELE:

 

A|--7------7--7----5----7------7--5----2-----------2-----|
E|--5------5--4----4----5------5--4----1-----1--------1--|
C|--5------5--4----4----5------5--5----2--------2--------|
G|--5------5--4----4----5------5--4----0--0--------------|

 

GUITAR:

 

e|--------------------------------------------------------------------------------------------------------8--8--|
B|--------------8----------------------------8------------------------8-----------------------------------------|
G|--9--9--9--9-----9--7--7-------9--9--9--9-----9--7--7---9--9--9--9-----7--7-------9--7--9--7--9--7------------|
D|----------------------------------------------------------------------------------------------------9---------|
A|--------------------------10-------------------------------------------------10-------------------------------|
E|--------------------------------------------------------------------------------------------------------------|

 


First Chorus/Primer Estribillo:

 

UKULELE:

 

A|------2------------2------------7------------7-------------2------------2------------7------------7--------|
E|---------0------------0------------5------------5-------------0------------0------------5------------5-----|
C|--0---------0--0---------0--5---------5--5---------5---0---------0--0---------0--5---------5--5---------5--|
G|------0------------0------------5------------5-------------0------------0------------5------------5--------|

 

GUITAR:

 

e|--8---7--7--7-------------------------------------8--8--8---7--7--7-------------------------------------8--8--|
B|----------------10--10--10---8--8--8----------------------------------10--10--10---8--8--8--------------------|
G|---------------------------------------9--7--------------------------------------------------9--7-------------|
D|---------------------------------------------10----------------------------------------------------10---------|
A|--------------------------------------------------------------------------------------------------------------|
E|--------------------------------------------------------------------------------------------------------------|

 

UKULELE:

 

A|------2------------2------------7------------7---------5------2------2--|
E|---------0------------0------------5------------5------4------1------0--|
C|--0---------0--0---------0--5---------5--5---------5---5------2------0--|
G|------0------------0------------5------------5---------4------0------0--|

 

GUITAR:

 

e|--8---7--7--7------------------------------------------------------------------|
B|----------------10--10--10---8--8--8-----------------8--------8--------8-------|
G|---------------------------------------9--7------------------------------------|
D|---------------------------------------------10----------10-------10-------10--|
A|-------------------------------------------------------------------------------|
E|-------------------------------------------------------------------------------|

 


Second Verse/Segunda Estrofa:

 

UKULELE:

 

A|------2------------2------------7------------7------------7------------5--------|
E|---------0------------0------------5------------5------------4------------4-----|
C|--0---------0--0---------0--5---------5--5---------5--4---------4--4---------4--|
G|------0------------0------------5------------5------------4------------4--------|

 

GUITAR:

 

e|-------------------------------------------------------------------------|
B|-------------------------------------------------------------------------|
G|--7-----------------7-----------------9---7-------------9--7-------------|
D|------10--9--7---------10--9--7--9-----------10--9------------10--9--10--|
A|-------------------------------------------------------------------------|
E|-------------------------------------------------------------------------|

 

UKULELE:

 

A|------2------------2------------2------------2------------7------------7------------7------------5--------|
E|---------0------------0------------0------------0------------5------------5------------4------------4-----|
C|--0---------0--0---------0--0---------0--0---------0--5---------5--5---------5--4---------4--4---------4--|
G|------0------------0------------0------------0------------5------------5------------4------------4--------|

 

GUITAR:

 

e|------------------------------------------------------------------------------------|
B|------------------------------------------------------------------------------------|
G|--7---------------------7-----------------9---7----------------9--7-----------------|
D|------10--9--7-------------10--9--7--9-----------10--9---------------10--9--10------|
A|--------------------10------------------------------------10--------------------10--|
E|------------------------------------------------------------------------------------|

 

UKULELE:

 

A|------3------------3------------3------------2-------------2------------2------------3------------3--------|
E|---------1------------1------------1------------1-------------0------------0------------2------------2-----|
C|--2---------2--2---------2--2---------2--2---------2---0---------0--0---------0--3---------3--3---------3--|
G|------2------------2------------0------------0-------------0------------0------------2------------2--------|

 

GUITAR:

 

e|----------------7----------------7--7------10--8--7------7-h-8-------7--8--7------|
B|--8------8--10-----8------8--10----------------------10----------10-----------10--|
G|----------------------------------------------------------------------------------|
D|----------------------------------------------------------------------------------|
A|----------------------------------------------------------------------------------|
E|----------------------------------------------------------------------------------|

 

UKULELE:

 

A|--3------3----2--|
E|--1------1----1--|
C|--2------2----2--|
G|--2------0----0--|

 

GUITAR:

 

e|--------8-------------------------8---------------------|
B|------------10------------------------10----------------|
G|--10-------------10---9----7---------------10---9----7--|
D|--------------------------------------------------------|
A|--------------------------------------------------------|
E|--------------------------------------------------------|

 


Second Pre-Chorus/Segundo Pre-Estribillo:

 

UKULELE:

 

A|--7------7--7----5----7------7--5----2-----------2-----|
E|--5------5--4----4----5------5--4----1-----1--------1--|
C|--5------5--4----4----5------5--5----2--------2--------|
G|--5------5--4----4----5------5--4----0--0--------------|

 

GUITAR:

 

e|--------------------------------------------------------------------------------------------------------8--8--|
B|--------------8----------------------------8------------------------8-----------------------------------------|
G|--9--9--9--9-----9--7--7-------9--9--9--9-----9--7--7---9--9--9--9-----7--7-------9--7--9--7--9--7------------|
D|----------------------------------------------------------------------------------------------------9---------|
A|--------------------------10-------------------------------------------------10-------------------------------|
E|--------------------------------------------------------------------------------------------------------------|

 


Second Chorus/Segundo Estribillo:

 

UKULELE:

 

A|------2------------2------------7------------7-------------2------------2------------7------------7--------|
E|---------0------------0------------5------------5-------------0------------0------------5------------5-----|
C|--0---------0--0---------0--5---------5--5---------5---0---------0--0---------0--5---------5--5---------5--|
G|------0------------0------------5------------5-------------0------------0------------5------------5--------|

 

GUITAR:

 

e|--8---7--7--7-------------------------------------8--8--8---7--7--7-------------------------------------8--8--|
B|----------------10--10--10---8--8--8----------------------------------10--10--10---8--8--8--------------------|
G|---------------------------------------9--7--------------------------------------------------9--7-------------|
D|---------------------------------------------10----------------------------------------------------10---------|
A|--------------------------------------------------------------------------------------------------------------|
E|--------------------------------------------------------------------------------------------------------------|

 

UKULELE:

 

A|------2------------2------------7------------7---------5------2------2--------2--------|
E|---------0------------0------------5------------5------4------1------0-----------0-----|
C|--0---------0--0---------0--5---------5--5---------5---5------2------0----0---------0--|
G|------0------------0------------5------------5---------4------0------0--------0--------|

 

GUITAR:

 

e|--8---7--7--7-------------------------------------------------------------------------------------|
B|----------------10--10--10---8--8--8-----------------8--------8--------8-----------------------8--|
G|---------------------------------------9--7----------------------------------------------7--9-----|
D|---------------------------------------------10----------10-------10-------10----10--10-----------|
A|--------------------------------------------------------------------------------------------------|
E|--------------------------------------------------------------------------------------------------|

 

UKULELE:

 

A|------2------------2------------7------------7-------------2------------2------------7------------7--------|
E|---------0------------0------------5------------5-------------0------------0------------5------------5-----|
C|--0---------0--0---------0--5---------5--5---------5---0---------0--0---------0--5---------5--5---------5--|
G|------0------------0------------5------------5-------------0------------0------------5------------5--------|

 

GUITAR:

 

e|--8---7--7--7-------------------------------------8--8--8---7--7--7-------------------------------------8--8--|
B|----------------10--10--10---8--8--8----------------------------------10--10--10---8--8--8--------------------|
G|---------------------------------------9--7--------------------------------------------------9--7-------------|
D|---------------------------------------------10----------------------------------------------------10---------|
A|--------------------------------------------------------------------------------------------------------------|
E|--------------------------------------------------------------------------------------------------------------|

 

UKULELE:

 

A|------2------------2------------7------------7---------5------2------2--|
E|---------0------------0------------5------------5------4------1------0--|
C|--0---------0--0---------0--5---------5--5---------5---5------2------0--|
G|------0------------0------------5------------5---------4------0------0--|

 

GUITAR:

 

e|--8---7--7--7------------------------------------------------------------------|
B|----------------10--10--10---8--8--8-----------------8--------8--------8-------|
G|---------------------------------------9--7------------------------------------|
D|---------------------------------------------10----------10-------10-------10--|
A|-------------------------------------------------------------------------------|
E|-------------------------------------------------------------------------------|

 


Outro:

 

UKULELE:

 

A|--7------7--7----5--|--7------7--5------5---3--2---0--|
E|--5------5--4----4--|--5------5--4-----------------0--|
C|--5------5--4----4--|--5------5--5-----------------0--|
G|--5------5--4----4--|--5------5--4-----------------0--|

 

GUITAR:

 

  /~~~~~~~~~~~~( REPEAT x2 / REPITE x2 )~~~~~~~~~~~~\
e|---------------------------------------------------|
B|--------------8------------------------8-----------|
G|--9--9--9--9-----9--7--7---9--9--9--9-----9--7--7--|
D|---------------------------------------------------|
A|---------------------------------------------------|
E|---------------------------------------------------|

Here Comes a Thought - Ian Harrison & Jerrex
00:00 / 00:00

©2019 by Fefe - Tron544

Sigueme en:

  • YouTube - White Circle
  • Facebook - White Circle
  • Instagram - White Circle
  • Twitter - White Circle
This site was designed with the
.com
website builder. Create your website today.
Start Now