~ HEART MOVING ~

TABLATURAS ~ By Fefe - Tron544

 

Chorus/Estribillo:

 

e|----------------------|----------------------------------|

B|------13--13--12--12--|--10--10--------------------------|

G|----------------------|----------12--11----9--12--11--9--|

D|--12------------------|----------------------------------|

A|----------------------|----------------------------------|

E|----------------------|----------------------------------|

 

e|--------------------------------------------|

B|--10--12--12------------10--12--13----------|

G|--------------9--9------------------11--11--|

D|--------------------------------------------|

A|--------------------------------------------|

E|--------------------------------------------|

 

 

Verse/Estrofa:

 

e|-----------------------------------------------------|

B|------------------------------10---------------------|

G|------------------------12--------12--11--12--11--9--|

D|--9--10--12--12--9--12-------------------------------|

A|-----------------------------------------------------|

E|-----------------------------------------------------|

 

e|---------------------------------------------------------|

B|----------------------------10--12-----------------------|

G|------------------------12------------12--11--12--11--9--|

D|--9--10--12--12--9--12-----------------------------------|

A|---------------------------------------------------------|

E|---------------------------------------------------------|

 

 

Pre-Chorus/Pre-Estribillo:

 

e|------------------------------------|--------------------------------------|

B|------------------------12--12--10--|------------------10--10--------------|

G|--9--11--12--12--9--12--------------|--11--11------11----------12--11--12--|

D|------------------------------------|----------12--------------------------|

A|------------------------------------|--------------------------------------|

E|------------------------------------|--------------------------------------|

 

e|-------------------------------------------------------------------|

B|-----------------12--12--10------10--10--12--13----13--12--13--10--|

G|--12--12--9--12----------------------------------------------------|

D|-------------------------------------------------------------------|

A|-------------------------------------------------------------------|

E|-------------------------------------------------------------------|

 

 

Chorus/Estribillo:

 

e|----------------------|----------------------------------|--------------------------------------------|

B|------13--13--12--12--|--10--10--------------------------|--10--12--12------------10--12--13----------|

G|----------------------|----------12--11----9--12--11--9--|--------------9--9------------------11--11--|

D|--12------------------|----------------------------------|--------------------------------------------|

A|----------------------|----------------------------------|--------------------------------------------|

E|----------------------|----------------------------------|--------------------------------------------|

 

e|----------------------|----------------------------------|--------------------------------------------|

B|------13--13--12--12--|--10--10--------------------------|--10--12--12------------10--12--13----------|

G|----------------------|----------12--11----9--12--11--9--|--------------9--9------------------11--11--|

D|--12------------------|----------------------------------|--------------------------------------------|

A|----------------------|----------------------------------|--------------------------------------------|

E|----------------------|----------------------------------|--------------------------------------------|

 

 

Heart Moving - Tron544
00:00 / 00:00

©2019 by Fefe - Tron544

Sigueme en:

  • YouTube - White Circle
  • Facebook - White Circle
  • Instagram - White Circle
  • Twitter - White Circle
This site was designed with the
.com
website builder. Create your website today.
Start Now