~ HEADHUNT ~

TABLATURAS ~ By Fefe - Tron544

 

Intro:

 

GUITAR 1:

 

e|-----2--2--2------2--2--2------4--4--4------3--3--3--|

B|-----3--3--3------3--3--3------4--4--4------3--3--3--|

G|-----4--4--4------4--4--4------4--4--4------4--4--4--|

D|-----4--4--4------4--4--4------6--6--6------5--5--5--|

A|--2--2--2--2---0--0--0--0------6--6--6------5--5--5--|

E|----------------------------4--4--4--4---3--3--3--3--|

 

GUITAR 2:

 

e|---------------------------------------------------------|

B|---------------------------------------------------------|

G|--11--9-------------9---------11--9-------------9--------|

D|---------9--9---12-----9--9----------9--9---12-----9--9--|

A|---------------------------------------------------------|

E|---------------------------------------------------------|

 

GUITAR 1:

 

e|-----2--2--2------2--2--2------4--4--4------3--3--|

B|-----3--3--3------3--3--3------4--4--4------3--3--|

G|-----4--4--4------4--4--4------4--4--4------4--4--|

D|-----4--4--4------4--4--4------6--6--6------5--5--|

A|--2--2--2--2---0--0--0--0------6--6--6------5--5--|

E|----------------------------4--4--4--4---3--3--3--|

 

GUITAR 2:

 

e|---------------------------------------------------------|

B|---------------------------------------------------------|

G|--11--9-------------9---------11--9-------------9--------|

D|---------9--9---12-----9--9----------9--9---12-----9--9--|

A|---------------------------------------------------------|

E|---------------------------------------------------------|

 

GUITAR 1:

 

e|--3--3--2--2--2---2--2--2--2--2---4--4--4--4--4---3--3--3--3--3--|

B|--3--3--3--3--3---3--3--3--3--3---4--4--4--4--4---3--3--3--3--3--|

G|--4--4--4--4--4---4--4--4--4--4---4--4--4--4--4---4--4--4--4--4--|

D|--4--4--4--4--4---4--4--4--4--4---6--6--6--6--6---5--5--5--5--5--|

A|--2--2--2--2--2---0--0--0--0--0---6--6--6--6--6---5--5--5--5--5--|

E|----------------------------------4--4--4--4--4---3--3--3--3--3--|

 

 

Verse/Estrofa:

 

GUITAR 1:

 

e|--2---2------2----------4----------3----0--|

B|--3------3---3---3------4---4------3----2--|

G|--4----------4------4---4------4---4----2--|

D|--4----------4----------6----------5----2--|

A|--2----------0----------6----------5----0--|

E|------------------------4----------3-------|

 

GUITAR 2:

 

e|------------------------------------------------------------------------------------------|

B|------------------------------------------------------------------------------------------|

G|----------------------------------9-------------------------------------------------------|

D|--9--11--11--11--9---9--9--11--------11---9--9--11--11--11--9---9--9--11-----11-/-12--11--|

A|-------------------------------9------------------------------------------9---------------|

E|------------------------------------------------------------------------------------------|

 

GUITAR 1:

 

e|--------------------------------------------------------------------------------------|

B|------12----------12---------12--------12--------12--------12--------12--------12-----|

G|--11------11--11------11--9------9--9------9--8------8--8------8--7------7--9------9--|

D|--------------------------------------------------------------------------------------|

A|--------------------------------------------------------------------------------------|

E|--------------------------------------------------------------------------------------|

 

GUITAR 2:

 

e|----------------------------------------------------------------------------------------------|

B|----------------------------------------------------------------------------------------------|

G|--------------------------------------9-------------------------------------------------------|

D|--9--11--11--11--11--9---9--9--11--------11---9--9--11--11--11--9---9--9--11-----11-/-12--11--|

A|-----------------------------------9------------------------------------------9---------------|

E|----------------------------------------------------------------------------------------------|

 

 

Pre-Chorus/Pre-Estribillo:

 

GUITAR 1:

 

e|--2---#--#--#--#---5---#--#--#--#---7---#--#--#--#---5---#--#--#--#--|

B|--3---#--#--#--#---7---#--#--#--#---9---#--#--#--#---7---#--#--#--#--|

G|--4---#--#--#--#---7---#--#--#--#---9---#--#--#--#---7---#--#--#--#--|

D|--4---#--#--#--#---7---#--#--#--#---9---#--#--#--#---7---#--#--#--#--|

A|--2---#--#--#--#---5---#--#--#--#---7---#--#--#--#---5---#--#--#--#--|

E|---------------------------------------------------------------------|

 

GUITAR 2:

 

e|-----------------------------------------------------------------------|

B|-----------------------------------------------------------------------|

G|---------------------------------7----------------------------------7--|

D|--9--7--9--7--9--7---9--9--7--9------9--7--9--7--9--7---9--9--7--9-----|

A|-----------------------------------------------------------------------|

E|-----------------------------------------------------------------------|

 

GUITAR 1:

 

e|--2---#--#--#--#---5---#--#--#--#---7---7--7--7--|

B|--3---#--#--#--#---7---#--#--#--#---9---9--9--9--|

G|--4---#--#--#--#---7---#--#--#--#---9---9--9--9--|

D|--4---#--#--#--#---7---#--#--#--#---9---9--9--9--|

A|--2---#--#--#--#---5---#--#--#--#---7---7--7--7--|

E|-------------------------------------------------|

 

GUITAR 2:

 

e|-----------------------------------------------------------------------------------|

B|-----------------------------------------------------------------------------------|

G|---------------------------------7----------------------------------7---9--9--9-b--|

D|--9--7--9--7--9--7---9--9--7--9------9--7--9--7--9--7---9--9--7--9-----------------|

A|-----------------------------------------------------------------------------------|

E|-----------------------------------------------------------------------------------|

 

 

Chorus/Estribillo:

 

GUITAR 1:

 

e|--0--0--|--2--2--2--2--2--2---2--2--2--2--2--2---0--0--0--0--0--0---0--0--0--0--0--0--|

B|--2--2--|--3--3--3--3--3--3---3--3--3--3--3--3---2--2--2--2--2--2---2--2--2--2--2--2--|

G|--2--2--|--4--4--4--4--4--4---4--4--4--4--4--4---2--2--2--2--2--2---2--2--2--2--2--2--|

D|--2--2--|--4--4--4--4--4--4---4--4--4--4--4--4---2--2--2--2--2--2---2--2--2--2--2--2--|

A|--0--0--|--2--2--2--2--2--2---2--2--2--2--2--2---0--0--0--0--0--0---0--0--0--0--0--0--|

E|--------|-----------------------------------------------------------------------------|

 

GUITAR 2:

 

e|--------|------------------------------------------------------------------|

B|--------|------------------------------------------------------------------|

G|--------|--11--11--11--11--11--11--11--11--11--9--9--7---------------------|

D|--9--9--|-----------------------------------------------9--9--7---7--7--7--|

A|--------|------------------------------------------------------------------|

E|--------|------------------------------------------------------------------|

 

GUITAR 1:

 

e|--5--5--5--5--5--5---5--5--5--5--5--5---7--7--7--7--7--7--7--7---0--0--|

B|--7--7--7--7--7--7---7--7--7--7--7--7---9--9--9--9--9--9--9--9---2--2--|

G|--7--7--7--7--7--7---7--7--7--7--7--7---9--9--9--9--9--9--9--9---2--2--|

D|--7--7--7--7--7--7---7--7--7--7--7--7---9--9--9--9--9--9--9--9---2--2--|

A|--5--5--5--5--5--5---5--5--5--5--5--5---7--7--7--7--7--7--7--7---0--0--|

E|-----------------------------------------------------------------------|

 

GUITAR 2:

 

e|-----------------------------------------------------------|

B|-----------------------------------------------------------|

G|--11--11--11--11--11--11--9--7--9--7--9--11--11--9---------|

D|-----------------------------------------------------9--9--|

A|-----------------------------------------------------------|

E|-----------------------------------------------------------|

 

GUITAR 1:

 

e|--2--2--2--2--2--2---2--2--2--2--2--2---0--0--0--0--0--0---0--0--0--0--0--0--|

B|--3--3--3--3--3--3---3--3--3--3--3--3---2--2--2--2--2--2---2--2--2--2--2--2--|

G|--4--4--4--4--4--4---4--4--4--4--4--4---2--2--2--2--2--2---2--2--2--2--2--2--|

D|--4--4--4--4--4--4---4--4--4--4--4--4---2--2--2--2--2--2---2--2--2--2--2--2--|

A|--2--2--2--2--2--2---2--2--2--2--2--2---0--0--0--0--0--0---0--0--0--0--0--0--|

E|-----------------------------------------------------------------------------|

 

GUITAR 2:

 

e|------------------------------------------------------------------|

B|------------------------------------------------------------------|

G|--11--11--11--11--11--11--11--11--11--9--9--7---------------------|

D|-----------------------------------------------9--9--7---7--7--7--|

A|------------------------------------------------------------------|

E|------------------------------------------------------------------|

 

GUITAR 1:

 

e|--5--5--5--5--5--5---5--5--5--5--5--5---7--7--7--7--7--7---7--7--7--7--7--7--|

B|--7--7--7--7--7--7---7--7--7--7--7--7---9--9--9--9--9--9---9--9--9--9--9--9--|

G|--7--7--7--7--7--7---7--7--7--7--7--7---9--9--9--9--9--9---9--9--9--9--9--9--|

D|--7--7--7--7--7--7---7--7--7--7--7--7---9--9--9--9--9--9---9--9--9--9--9--9--|

A|--5--5--5--5--5--5---5--5--5--5--5--5---7--7--7--7--7--7---7--7--7--7--7--7--|

E|-----------------------------------------------------------------------------|

 

GUITAR 2:

 

e|----------------------------------------------------|

B|----------------------------------------------------|

G|--11--11--11--11--11--11--9--7--9--7--9--11--11--9--|

D|----------------------------------------------------|

A|----------------------------------------------------|

E|----------------------------------------------------|

 

 

Outro:

 

GUITAR 1:

 

e|--2---2------------0---0------------2---0---0---2--|

B|--3------3---------2------2---------3---2---0---3--|

G|--4---------4------2---------2------4---2---1---4--|

D|--4------------4---2------------2---4---2---2---4--|

A|--2----------------0----------------2---0---2---2--|

E|--------------------------------------------0------|

 

GUITAR 2:

 

e|-----------------------------------------------------------------------|

B|-----------------------------------------------------------------------|

G|---------------------------------7----------------------------------7--|

D|--9--7--9--7--9--7---9--9--7--9------9--7--9--7--9--7---9--9--7--9-----|

A|-----------------------------------------------------------------------|

E|-----------------------------------------------------------------------|

 

  

HEADHUNT - Tron544
00:00 / 00:00

©2019 by Fefe - Tron544

Sigueme en:

  • YouTube - White Circle
  • Facebook - White Circle
  • Instagram - White Circle
  • Twitter - White Circle
This site was designed with the
.com
website builder. Create your website today.
Start Now