HARUKAZE

BLEACH

TABS ~ By Fefe (Tron544)

 

Intro:

 

GUITAR 1:

 

e|-----------|

B|-----------|

G|-----------|

D|--2--2--2--|

A|--2--2--2--|

E|--0--0--0--|

 

GUITAR 2:

 

e|------|--12------12------14------12------|

B|--12--|------12------12------12------12--|

G|------|----------------------------------|

D|------|----------------------------------|

A|------|----------------------------------|

E|------|----------------------------------|

 

GUITAR 1:

 

e|-----------|

B|-----------|

G|--4--4--4--|

D|--4--4--4--|

A|--2--2--2--|

E|-----------|

 

GUITAR 2:

 

e|--12------12-------14------12------|

B|------12-------12------12------12--|

G|-----------------------------------|

D|-----------------------------------|

A|-----------------------------------|

E|-----------------------------------|

GUITAR 1:

 

e|--------------------|

B|--------------------|

G|--6--6--6--6--6--6--|

D|--6--6--6--6--6--6--|

A|--4--4--4--4--4--4--|

E|--------------------|

 

GUITAR 2:

 

e|--12------12------14------12-------16------14------12------14------|

B|------12------12------12------12-------12------12------12------12--|

G|-------------------------------------------------------------------|

D|-------------------------------------------------------------------|

A|-------------------------------------------------------------------|

E|-------------------------------------------------------------------|

 

GUITAR 1:

 

e|-------------------------------------|

B|-------------------------------------|

G|--2--2--2---4--4--4---6--6--6--6--6--|

D|--2--2--2---4--4--4---6--6--6--6--6--|

A|--0--0--0---2--2--2---4--4--4--4--4--|

E|-------------------------------------|

 

GUITAR 2:

 

e|--12------12------14------12-------16------14------12------11-------11-------11-------11--12--|

B|------12------12------12------12-------12------12------12------12-------12-------12-------12--|

G|----------------------------------------------------------------------------------------------|

D|----------------------------------------------------------------------------------------------|

A|----------------------------------------------------------------------------------------------|

E|----------------------------------------------------------------------------------------------|

 

 

Verse/Estrofa:

 

GUITAR 1:

 

e|-----|

B|-----|

G|-----|

D|--2--|

A|--2--|

E|--0--|

 

GUITAR 2:

 

e|---------------------------------------------------------------------------------|

B|---------------9--9-h-10--9------9---9--10--9------------------------------------|

G|-----9--9--11----------------11----------------11--9--9---9--9--8------8--8-h-9--|

D|--9----------------------------------------------------------------11------------|

A|---------------------------------------------------------------------------------|

E|---------------------------------------------------------------------------------|

 

GUITAR 1:

 

e|--------4------------4------------4---------------7-----|

B|-----5-----5------7-----7------5-----5------5--------5--|

G|--4------------4------------4------------4-----4--------|

D|--------------------------------------------------------|

A|--------------------------------------------------------|

E|--------------------------------------------------------|

 

GUITAR 2:

 

e|---------------------------------------------------------|

B|---------------9--9-h-10--9------9---9--10--9------------|

G|-----9--9--11----------------11----------------11--9--9--|

D|--9------------------------------------------------------|

A|---------------------------------------------------------|

E|---------------------------------------------------------|

 

 

GUITAR 1:

 

e|--------4---------------7---------------4---------------7--|

B|-----5-----5------5--------5------5--------5------5--------|

G|--6------------4-----4---------4-----4---------4-----4-----|

D|-----------------------------------------------------------|

A|-----------------------------------------------------------|

E|-----------------------------------------------------------|

 

GUITAR 2:

 

e|---------------------------------|

B|---------------------------------|

G|--8--9---9--9--11------8--8-h-9--|

D|-------------------11------------|

A|---------------------------------|

E|---------------------------------|

 

 

Pre-Chorus/Pre-Estribillo:

 

GUITAR 1:

 

e|---------------------------------------------------------------------------------------------------------|

B|---------------------------------------------------------------------------------------------------------|

G|--(2)-x--x--x--x--x--x--x---(4)-x--x--x--x--x--x--x---(6)-x--x--x--x--x--x--x---(9)-x--x--x--x--x--x--x--|

D|--(2)-x--x--x--x--x--x--x---(4)-x--x--x--x--x--x--x---(6)-x--x--x--x--x--x--x---(9)-x--x--x--x--x--x--x--|

A|--(0)-x--x--x--x--x--x--x---(2)-x--x--x--x--x--x--x---(4)-x--x--x--x--x--x--x---(7)-x--x--x--x--x--x--x--|

E|---------------------------------------------------------------------------------------------------------|

 

GUITAR 2:

 

e|-----------------------------------------------------------------------------|

B|----------------------------9--------------------------------------9---------|

G|--11--11--9--11--11--9--11-----9--9---9--11--11--9--11--11--9--11-----9---9--|

D|-----------------------------------------------------------------------------|

A|-----------------------------------------------------------------------------|

E|-----------------------------------------------------------------------------|

 

GUITAR 3:

 

e|--2-----2-----2------2-----2--4--2------2-----2--4--2------2-----2--5--4--2-----|

B|-----0-----2-----0------0-----------0------0-----------0------0--------------5--|

G|--------------------------------------------------------------------------------|

D|--------------------------------------------------------------------------------|

A|--------------------------------------------------------------------------------|

E|--------------------------------------------------------------------------------|

 

GUITAR 1:

 

e|------------------------------------------------------------------------------------------------------|

B|------------------------------------------------------------------------------------------------------|

G|--(2)-x--x--x--x--x--x--x---(4)-x--x--x--x--x--x--x---(6)-x--x--x--x--x--x--x---9--9--9--9---9--9--9--|

D|--(2)-x--x--x--x--x--x--x---(4)-x--x--x--x--x--x--x---(6)-x--x--x--x--x--x--x---9--9--9--9---9--9--9--|

A|--(0)-x--x--x--x--x--x--x---(2)-x--x--x--x--x--x--x---(4)-x--x--x--x--x--x--x---7--7--7--7---7--7--7--|

E|------------------------------------------------------------------------------------------------------|

 

GUITAR 2:

 

e|----------------------------------------------------------------------------|

B|----------------------------9------------------------------------10--9------|

G|--11--11--9--11--11--9--11-----9---11--11--9--11--11--9--11--11----------9--|

D|----------------------------------------------------------------------------|

A|----------------------------------------------------------------------------|

E|----------------------------------------------------------------------------|

 

GUITAR 3:

 

e|--2-----2--4--2------2-----2--4--2------2-----2--4--2------7--5--4---------------|

B|-----0-----------0------0-----------0------0-----------0------------5---5--5--5--|

G|---------------------------------------------------------------------------------|

D|---------------------------------------------------------------------------------|

A|---------------------------------------------------------------------------------|

E|---------------------------------------------------------------------------------|

 

GUITAR 1:

 

e|--------------------------|

B|--------------------------|

G|--2------4------6------9--|

D|--2------4------6------9--|

A|--0------2------4------7--|

E|--------------------------|

 

GUITAR 2:

 

e|-------------------------------------------------------------------------------------------|

B|------------------------------------9------------------------------------9--9-h-10--9------|

G|--11--11--11--9--11--11--9--11--11------9--11--11--11--9--11--11--9--11----------------11--|

D|-------------------------------------------------------------------------------------------|

A|-------------------------------------------------------------------------------------------|

E|-------------------------------------------------------------------------------------------|

 

GUITAR 3:

 

e|--------5-------------4------4--------|

B|--------5---------4---5---------5-----|

G|-----6---------4------4---4-----------|

D|--7---------4---------6------------6--|

A|--------------------------------------|

E|--------------------------------------|

 

GUITAR 1:

 

e|-------------------------|

B|-------------------------|

G|--2------4---4--x--x--4--|

D|--2------4---4--x--x--4--|

A|--0------2---2--x--x--2--|

E|-------------------------|

 

GUITAR 2:

 

e|------------------------------------------|

B|------------------------------------------|

G|--9--9--8------8--8-h-9---9-h-11--9-h-11--|

D|-----------11-----------------------------|

A|------------------------------------------|

E|------------------------------------------|

 

GUITAR 3:

 

e|--5------5-------------------|

B|--5----------4---4--x--x--4--|

G|--6---6------4---4--x--x--4--|

D|--7----------4---4--x--x--4--|

A|-----------------------------|

E|-----------------------------|

HARUKAZE - Tron544
00:00 / 00:00
DONATE%20BUTTON%20(EN)_edited.png

Chorus/Estribillo:

 

GUITAR 1:

 

e|---------------------------------------|

B|---------------------------------------|

G|--2--2--2--2--2--2---4--4--4--4--4--4--|

D|--2--2--2--2--2--2---4--4--4--4--4--4--|

A|--0--0--0--0--0--0---2--2--2--2--2--2--|

E|---------------------------------------|

 

GUITAR 2:

 

e|--------------------|------------------------|

B|--12--12--9---------|------9-------9--12--9--|

G|-------------11--9--|--11------11------------|

D|--------------------|------------------------|

A|--------------------|------------------------|

E|--------------------|------------------------|

 

GUITAR 3:

 

e|--12------12------12------14-------12------12------12------14------|

B|------12------12------12------12-------12------12------12------12--|

G|-------------------------------------------------------------------|

D|-------------------------------------------------------------------|

A|-------------------------------------------------------------------|

E|-------------------------------------------------------------------|

 

GUITAR 1:

 

e|---------------------------------------|

B|---------------------------------------|

G|--6--6--6--6--6--6---9--9--9--9--9--9--|

D|--6--6--6--6--6--6---9--9--9--9--9--9--|

A|--4--4--4--4--4--4---7--7--7--7--7--7--|

E|---------------------------------------|

 

GUITAR 2:

 

e|------------------------|

B|------9-------9--12--9--|

G|--11------11------------|

D|------------------------|

A|------------------------|

E|------------------------|

 

GUITAR 3:

 

e|--12------12------12------14-------16------14------12------14------|

B|------12------12------12------12-------12------12------12------12--|

G|-------------------------------------------------------------------|

D|-------------------------------------------------------------------|

A|-------------------------------------------------------------------|

E|-------------------------------------------------------------------|

 

GUITAR 1:

 

e|--------------------------------------|

B|--------------------------------------|

G|--2--2--2--2--2--2---4--4--4--4--4--4-|

D|--2--2--2--2--2--2---4--4--4--4--4--4-|

A|--0--0--0--0--0--0---2--2--2--2--2--2-|

E|--------------------------------------|

 

GUITAR 2:

 

e|---------------------9-----|

B|------9-------9--12-----12-|

G|--11------11---------------|

D|---------------------------|

A|---------------------------|

E|---------------------------|

 

GUITAR 3:

 

e|--12------12------12------14-------16------14------12------11-----|

B|------12------12------12------12-------12------12------12------12-|

G|------------------------------------------------------------------|

D|------------------------------------------------------------------|

A|------------------------------------------------------------------|

E|------------------------------------------------------------------|

 

GUITAR 1:

 

e|---------------------------------------|

B|---------------------------------------|

G|--6--6--6--6--6--6---6--6--6--6--6--6--|

D|--6--6--6--6--6--6---6--6--6--6--6--6--|

A|--4--4--4--4--4--4---4--4--4--4--4--4--|

E|---------------------------------------|

 

GUITAR 2:

 

e|-------------------------------|

B|-9--9--9--9-h-10--9------------|

G|---------------------11--9--9--|

D|-------------------------------|

A|-------------------------------|

E|-------------------------------|

 

GUITAR 3:

 

e|--11------11------11------11-------12------11------12------14------|

B|------12------12------12------12-------12------12------12------12--|

G|-------------------------------------------------------------------|

D|-------------------------------------------------------------------|

A|-------------------------------------------------------------------|

E|-------------------------------------------------------------------|

 

GUITAR 1:

 

e|--------------------------------------|

B|--------------------------------------|

G|--2--2--2--2--2--2---4--4--4--4--4--4-|

D|--2--2--2--2--2--2---4--4--4--4--4--4-|

A|--0--0--0--0--0--0---2--2--2--2--2--2-|

E|--------------------------------------|

 

GUITAR 2:

 

e|------------------------|

B|------9-------9--12--9--|

G|--11------11------------|

D|------------------------|

A|------------------------|

E|------------------------|

 

GUITAR 3:

 

e|--12------12------12------14-------12------12------12------14------|

B|------12------12------12------12-------12------12------12------12--|

G|-------------------------------------------------------------------|

D|-------------------------------------------------------------------|

A|-------------------------------------------------------------------|

E|-------------------------------------------------------------------|

 

GUITAR 1:

 

e|---------------------------------------|

B|---------------------------------------|

G|---------------------6--6--6--6--6--6--|

D|--6--6--6--6--6--6---6--6--6--6--6--6--|

A|--6--6--6--6--6--6---4--4--4--4--4--4--|

E|--4--4--4--4--4--4---------------------|

 

GUITAR 2:

 

e|------------------------|

B|------9-------9--12--9--|

G|--11------11------------|

D|------------------------|

A|------------------------|

E|------------------------|

 

GUITAR 3:

 

e|--12------12------12------14-------16------14------12------14------|

B|------12------12------12------12-------12------12------12------12--|

G|-------------------------------------------------------------------|

D|-------------------------------------------------------------------|

A|-------------------------------------------------------------------|

E|-------------------------------------------------------------------|

 

GUITAR 1:

 

e|--------------------------------------|

B|--------------------------------------|

G|--2--2--2--2--2--2---4--4--4--4--4--4-|

D|--2--2--2--2--2--2---4--4--4--4--4--4-|

A|--0--0--0--0--0--0---2--2--2--2--2--2-|

E|--------------------------------------|

 

GUITAR 2:

 

e|---------------------9------|

B|------9-------9--12-----12--|

G|--11------11----------------|

D|----------------------------|

A|----------------------------|

E|----------------------------|

 

GUITAR 3:

 

e|--12------12------12------14-------16------14------12------11-----|

B|------12------12------12------12-------12------12------12------12-|

G|------------------------------------------------------------------|

D|------------------------------------------------------------------|

A|------------------------------------------------------------------|

E|------------------------------------------------------------------|

 

GUITAR 1:

 

e|---------------------------------------|

B|---------------------------------------|

G|--6--6--6--6--6--6---9--9--9--9--9--9--|

D|--6--6--6--6--6--6---9--9--9--9--9--9--|

A|--4--4--4--4--4--4---7--7--7--7--7--7--|

E|---------------------------------------|

 

GUITAR 2:

 

e|--------------------------------|

B|--9--9--9--9-h-10--9------------|

G|----------------------11--9--9--|

D|--------------------------------|

A|--------------------------------|

E|--------------------------------|

 

GUITAR 3:

 

e|--11------11------11------11-------12------11------12------14------|

B|------12------12------12------12-------12------12------12------12--|

G|-------------------------------------------------------------------|

D|-------------------------------------------------------------------|

A|-------------------------------------------------------------------|

E|-------------------------------------------------------------------|

 

GUITAR 1:

 

e|------------------------------------|

B|------------------------------------|

G|--2------4--x--x--4--x--x--4--x--4--|

D|--2------4--x--x--4--x--x--4--x--4--|

A|--0------2--x--x--2--x--x--2--x--2--|

E|------------------------------------|

 

GUITAR 2:

 

e|--------------------------------------------------|

B|--------------------------------------------------|

G|--9--9--8------8--8-h-9---9--9--11------8--8-h-9--|

D|-----------11-----------------------11------------|

A|--------------------------------------------------|

E|--------------------------------------------------|

 

GUITAR 3:

 

e|--12------14--x--x--14--x--x--14--x--14--|

B|--12------12--x--x--12--x--x--12--x--12--|

G|-----------------------------------------|

D|-----------------------------------------|

A|-----------------------------------------|

E|-----------------------------------------|

©2015 by Fefe - Tron544

Sigueme en:

  • YouTube - White Circle
  • Facebook - White Circle
  • Instagram - White Circle
  • Twitter - White Circle
This site was designed with the
.com
website builder. Create your website today.
Start Now