TABLATURAS ~ By Fefe - Tron544

 
 

Intro:

GUITAR (Lead):

e|-------|

B|--2-/--|

G|-------|

D|-------|

A|-------|

E|-------|

GUITAR (Rhythm):

  /~~~~~~~~~~~~( REPEAT x4 / REPITE x4 )~~~~~~~~~~~~\
e|---------------------------------------------------|
B|---------------------------------------------------|
G|--(6)-x--6--x--x--6--x--x--6--x--x--6--x--4--4--4--|
D|--(6)-x--6--x--x--6--x--x--6--x--x--6--x--4--4--4--|
A|--(4)-x--4--x--x--4--x--x--4--x--x--4--x--2--2--2--|
E|---------------------------------------------------|

GUITAR (Lead):

  /~~~~~~~~~~~~~~~~~~~~~~~~~~~~~~~~~~~~( REPEAT x2 / REPITE x2 )~~~~~~~~~~~~~~~~~~~~~~~~~~~~~~~~~~~~\
e|---------------------------------------------------------------------------------------------------|
B|--14-14-14-14-14-14-14-14-14-14-14-14-14-14-14-14--14-14-14-14-14-14-14-14-14-14-14-14-12-12-12-12-|
G|---------------------------------------------------------------------------------------------------|
D|---------------------------------------------------------------------------------------------------|
A|---------------------------------------------------------------------------------------------------|
E|---------------------------------------------------------------------------------------------------|

e|------------------------------------------------------------------------------------------|
B|--17-17-17-17-17-17-17-17-17-17-17-17-17-17-17-17--17-17-17-17-17-17-17-17-17-17-17-17-\--|
G|------------------------------------------------------------------------------------------|
D|------------------------------------------------------------------------------------------|
A|------------------------------------------------------------------------------------------|
E|------------------------------------------------------------------------------------------|

e|--------------------------------------------------------------------------------------------------------|
B|--19-19-19-19-19-19-19-19-19-19-19-19-19-19-19-19--21-21-21-21-21-21-21-21-21-21-21-21-21-21-21-21--21--|
G|--------------------------------------------------------------------------------------------------------|
D|--------------------------------------------------------------------------------------------------------|
A|--------------------------------------------------------------------------------------------------------|
E|--------------------------------------------------------------------------------------------------------|

BASS:

  /~~~~~~~~~~~~( REPEAT x4 / REPITE x4 )~~~~~~~~~~~~\
G|---------------------------------------------------|
D|---------------------------------------------------|
A|--4--4--7--4--4--7--4--4--7--4--4--7--4---9--9--9--|
E|---------------------------------------------------|

GUITAR (Lead):

e|-----------------------------------------------------------------------|
B|-----------------------------t-10-p-5-h-7--t-12-p-5-h-7--t-14-p-5-h-7--|
G|--t-9-p-4-h-6--t-11-p-4-h-6--------------------------------------------|
D|-----------------------------------------------------------------------|
A|-----------------------------------------------------------------------|
E|-----------------------------------------------------------------------|

GUITAR (Rhythm):

e|-----------------------------------------------------------------------|
B|-----------------------------------------------------------------------|
G|--2--2--2--2--2--2---4--4--5--5---6--6--6--6--6--6---------------------|
D|--2--2--2--2--2--2---4--4--4--4---6--6--6--6--6--6---2--2--2--2--2--2--|
A|--0--0--0--0--0--0---2--2--3--3---4--4--4--4--4--4---2--2--2--2--2--2--|
E|-----------------------------------------------------0--0--0--0--0--0--|

GUITAR (Lead):

  /~~~~~~~~~~~~~~~~~~~~~~( REPEAT x2 / REPITE x2 )~~~~~~~~~~~~~~~~~~~~~~\
e|-----------------------------------------------------------------------|
B|-----------------------------t-10-p-5-h-7--t-12-p-5-h-7--t-14-p-5-h-7--|
G|--t-9-p-4-h-6--t-11-p-4-h-6--------------------------------------------|
D|-----------------------------------------------------------------------|
A|-----------------------------------------------------------------------|
E|-----------------------------------------------------------------------|

BASS:

G|----------------------------------------------------------------------------------------------------|
D|----------------------------------------------------------------------------------------------------|
A|--0--0--0--0--0--0--0--0---2--2--2--2--3--3--3--3---4--4--4--4--4--4--4--4---7--7--7----------------|
E|---------------------------------------------------------------------------------------0---0--0--0--|

GUITAR (Rhythm):

e|---------------------------------|
B|---------------------------------|
G|--2--2--2--2--2--2---4--4--5--5--|
D|--2--2--2--2--2--2---4--4--4--4--|
A|--0--0--0--0--0--0---2--2--3--3--|
E|---------------------------------|

GUITAR (Lead):

e|-----------------------------------------------------------------------|
B|-----------------------------t-10-p-5-h-7--t-12-p-5-h-7--t-14-p-5-h-7--|
G|--t-9-p-4-h-6--t-11-p-4-h-6--------------------------------------------|
D|-----------------------------------------------------------------------|
A|-----------------------------------------------------------------------|

E|-----------------------------------------------------------------------|

BASS:

G|---------------------------------------------------|
D|-----------/-7---7--7--7---------------------------|
A|--0--0--0------------------2--2--2--2--3--3--3--3--|
E|---------------------------------------------------|

GUITAR (Rhythm):

e|---------------------------------------|
B|---------------------------------------|
G|--6--6--6--6--6--6---6--6--6--4--4--4--|
D|--6--6--6--6--6--6---6--6--6--4--4--4--|
A|--4--4--4--4--4--4---4--4--4--2--2--2--|
E|---------------------------------------|

GUITAR (Lead):

e|----------------------------------------------------------------------|
B|--t-17-p-5-h-7--t-19-p-5-h-7--t-17-p-5-h-7--t-19-p-5-h-7--t-17--t-19--|
G|----------------------------------------------------------------------|
D|----------------------------------------------------------------------|
A|----------------------------------------------------------------------|
E|----------------------------------------------------------------------|

BASS:

G|----------------------------------------|
D|----------------------------------------|
A|--4---7---4--7---4--7---4--7---9--9--9--|
E|----------------------------------------|

 


Verse/Estrofa:

GUITAR (Rhythm):

e|--4----------2-------------------------------------------------------|
B|--5----------2-------------------------------------------------------|
G|--6----------2-------------2---2--2--2--2--2--2---4--4--4---5--5--5--|
D|--6----------4------6--6---2---2--2--2--2--2--2---4--4--4---4--4--4--|
A|--4----------4------6--6---0---0--0--0--0--0--0---2--2--2---3--3--3--|
E|-------------2------4--4---------------------------------------------|

GUITAR (Lead):

e|--------------------------------------------------------------------------------|
B|--t-17--------------------------------------------------------------------------|
G|----------------9------11--11---9---9--9--9--9--9--9---11--11--11---13--13--13--|
D|--------------------------------------------------------------------------------|
A|----------------7------9---9----7---7--7--7--7--7--7---9---9---9----11--11--11--|
E|--------------------------------------------------------------------------------|

GUITAR (Vocals):

e|--------------------------------------------------------------------------------------------------------|
B|-----------------------------------------------------------------------9---9---9--9---9---9---9--9------|
G|--9----9--------9--9--9--8-------------9-------9-------11---9--9--11---------------------------------9--|
D|-----------------------------9--9-----------------------------------------------------------------------|
A|------------11---------------------11------11------11---------------------------------------------------|
E|--------------------------------------------------------------------------------------------------------|

GUITAR (Harmony):

e|-----------------------------------------------------------------------------|
B|--9----9-------------9-------9------12---12---12--12---12---12---12--12---9--|
G|-----------------------------------------------------------------------------|
D|------------------9-------9--------------------------------------------------|
A|-----------------------------------------------------------------------------|
E|-----------------------------------------------------------------------------|

BASS:

G|---------------------------------------------------------------------|
D|---------------------------------------------------------------------|
A|--4------------------------0---0--0--0--0--0--0---2--2--2---3--3--3--|
E|-------------2------4--4---------------------------------------------|

GUITAR (Rhythm):

e|--4----------2-------------------------------------------------------|
B|--5----------2-------------------------------------------------------|
G|--6----------2-------------2---2--2--2--2--2--2---4--4--4---5--5--5--|
D|--6----------4------6--6---2---2--2--2--2--2--2---4--4--4---4--4--4--|
A|--4----------4------6--6---0---0--0--0--0--0--0---2--2--2---3--3--3--|
E|-------------2------4--4---------------------------------------------|

GUITAR (Lead):

e|------------------------------------------------------------------------------------|
B|------------------------------------------------------------------------------------|
G|--9----------8---9---11----13--13---9---9--9--9--9--9--9---11--11--11---13--13--13--|
D|------------------------------------------------------------------------------------|
A|--7----------6---7---9-----11--11---7---7--7--7--7--7--7---9---9---9----11--11--11--|
E|------------------------------------------------------------------------------------|

GUITAR (Vocals):

e|--------------------------------------------------------------------------------------------------------|
B|-----------------------------------------------------------------------9---9--9--9--9---9---9--9--9--9--|
G|--9----9--------9--9--9--8-------------9-------9-------11---9--9--11------------------------------------|
D|-----------------------------9--9--11-------------------------------------------------------------------|
A|------------11-----------------------------11------11---------------------------------------------------|
E|--------------------------------------------------------------------------------------------------------|

GUITAR (Harmony):

e|-------------------------------------------------------------------------------|
B|--9----9-------------9-------9------12---12--12--12--12---12---12--12--12--12--|
G|-------------------------------------------------------------------------------|
D|------------------9-------9----------------------------------------------------|
A|-------------------------------------------------------------------------------|
E|-------------------------------------------------------------------------------|

BASS:

G|-----------------6---6--------------------------------------------------------------------|
D|-------------6-----------6--4-------4----6--6---------------------------------------------|
A|--4------4----------------------4---------------0---0--0--0--0--0--0---2--2--2---3--3--3--|
E|------------------------------------------------------------------------------------------|


Pre-Chorus/Pre-Estribillo:

GUITAR (Rhythm):

e|------------------------------------------------------------------------|
B|------------------------------------------------------------------------|
G|--6--6---5---4---2--2----------4--5--6--6---5---4---2--2----------4--5--|
D|--6--6---4---4---2--2---6--6---4--4--6--6---4---4---2--2---6--6---4--4--|
A|--4--4---3---2---0--0---6--6---2--3--4--4---3---2---0--0---6--6---2--3--|
E|------------------------4--4-------------------------------4--4---------|

BASS:

G|-----6--------------2--------------------6--------------2----------------|
D|---------------------------6------6----------------------------6---------|
A|--4------3---2---0--------------------4------3---2---0-------------2--3--|
E|------------------------4------4----------------------------4------------|

GUITAR (Rhythm):

e|----------------------------------------------------------------------------|
B|----------------------------------------------------------------------------|
G|--6--6---5---4---2--2----------4--5--6--6--6--------------------------------|
D|--6--6---4---4---2--2---6--6---4--4--6--6--6---2--2--2---4--4--4---6--6--6--|
A|--4--4---3---2---0--0---6--6---2--3--4--4--4---2--2--2---4--4--4---6--6--6--|
E|------------------------4--4-------------------0--0--0---2--2--2---4--4--4--|

GUITAR (Lead):

e|--12--11--9--11-----------------------------|
B|-----------------9--------------------------|
G|--------------------11---9------9--11-/-13--|
D|----------------------------11--------------|
A|--------------------------------------------|
E|--------------------------------------------|

BASS:

G|-----6--------------2-----------------------------------------------------------|
D|---------------------------6------6---------------------------------------------|
A|--4------3---2---0--------------------4--4--4---7--7--7---9--9--9---11--11--11--|
E|------------------------4------4------------------------------------------------|


Chorus/Estribillo:

GUITAR (Rhythm):

e|---------------------------------|
B|---------------------------------|
G|--2--2--2--2--2--2---4--4--5--5--|
D|--2--2--2--2--2--2---4--4--4--4--|
A|--0--0--0--0--0--0---2--2--3--3--|
E|---------------------------------|

GUITAR (Lead):

e|-----------------------------------------------------------------------|
B|-----------------------------t-10-p-5-h-7--t-12-p-5-h-7--t-14-p-5-h-7--|
G|--t-9-p-4-h-6--t-11-p-4-h-6--------------------------------------------|
D|-----------------------------------------------------------------------|
A|-----------------------------------------------------------------------|
E|-----------------------------------------------------------------------|

GUITAR (Vocals):

e|--------------|------------------------------|
B|--/-9---------|------9----9--------9---------|
G|-------11--9--|--11----------11-------11--9--|
D|--------------|------------------------------|
A|--------------|------------------------------|
E|--------------|------------------------------|

GUITAR (Harmony):

e|---------------|---------------------------------|
B|--/-12--10--9--|--10--12----12--10----12--10--9--|
G|---------------|---------------------------------|
D|---------------|---------------------------------|
A|---------------|---------------------------------|
E|---------------|---------------------------------|

BASS:

G|---------------------------------------|
D|---------------------------------------|
A|--0--0--0--0--0--0--0--0---2--2--3--3--|
E|---------------------------------------|

GUITAR (Rhythm):

e|---------------------------------------|
B|---------------------------------------|
G|--6--6--6--6--6--6---------------------|
D|--6--6--6--6--6--6---2--2--2--2--2--2--|
A|--4--4--4--4--4--4---2--2--2--2--2--2--|
E|---------------------0--0--0--0--0--0--|

GUITAR (Lead):

e|-----------------------------------------------------------------------|
B|-----------------------------t-10-p-5-h-7--t-12-p-5-h-7--t-14-p-5-h-7--|
G|--t-9-p-4-h-6--t-11-p-4-h-6--------------------------------------------|
D|-----------------------------------------------------------------------|
A|-----------------------------------------------------------------------|
E|-----------------------------------------------------------------------|

GUITAR (Vocals):

e|----------------------------------|
B|--------------------------12--12--|
G|--11---9-------9------------------|
D|-----------9--------9--9----------|
A|----------------------------------|
E|----------------------------------|

GUITAR (Harmony):

e|--------------------------12--12--|
B|--10---9-------9------------------|
G|-----------9--------9--9----------|
D|----------------------------------|
A|----------------------------------|
E|----------------------------------|

BASS:

G|---------------------------------------------------|
D|---------------------------------------------------|
A|--4--4--------4--4--6--6---7--7--7--7--7--7--7--7--|
E|--------4--4---------------------------------------|

GUITAR (Rhythm):

e|---------------------------------|
B|---------------------------------|
G|--2--2--2--2--2--2---4--4--5--5--|
D|--2--2--2--2--2--2---4--4--4--4--|
A|--0--0--0--0--0--0---2--2--3--3--|
E|---------------------------------|

GUITAR (Lead):

e|-----------------------------------------------------------------------|
B|-----------------------------t-10-p-5-h-7--t-12-p-5-h-7--t-14-p-5-h-7--|
G|--t-9-p-4-h-6--t-11-p-4-h-6--------------------------------------------|
D|-----------------------------------------------------------------------|
A|-----------------------------------------------------------------------|
E|-----------------------------------------------------------------------|

GUITAR (Vocals):

e|---------------------------------|
B|-----12--12----9-------9--9------|
G|------------------11---------9---|
D|--9------------------------------|
A|---------------------------------|
E|---------------------------------|

GUITAR (Harmony):

e|-----12--12-----------------------------------------|
B|---------------12--10---12--12--9------/-12--10--9--|
G|--9-------------------------------------------------|
D|----------------------------------------------------|
A|----------------------------------------------------|
E|----------------------------------------------------|

BASS:

G|----------------------------------------------------|
D|-----------/-7---7--7--7----------------------------|
A|--0--0--0------------------2--2--2--2---3--3--3--3--|
E|----------------------------------------------------|

GUITAR (Rhythm):

e|-------------------------------------|
B|-------------------------------------|
G|--6--6--6--6--6--6---6--6--6--6---4--|
D|--6--6--6--6--6--6---6--6--6--6---4--|
A|--4--4--4--4--4--4---4--4--4--4---2--|
E|-------------------------------------|

GUITAR (Lead):

e|----------------------------------------------------------------|
B|--t-17-p-5-h-7--t-19-p-5-h-7--t-17-p-5-h-7--t-19-p-5-h-7--t-17--|
G|----------------------------------------------------------------|
D|----------------------------------------------------------------|
A|----------------------------------------------------------------|
E|----------------------------------------------------------------|

GUITAR (Vocals):

e|--------------|
B|--/-9---------|
G|-------11--9--|
D|--------------|
A|--------------|
E|--------------|

GUITAR (Harmony):

e|---------------|
B|--/-12--10--9--|
G|---------------|
D|---------------|
A|---------------|
E|---------------|

BASS:

G|---------------------------------------------16------16------|
D|-------------------------------------14----------18------18--|
A|--4-----4--6--7--6--4------/-16--16------16------------------|
E|-----4-----------------4-------------------------------------|

GUITAR (Rhythm):

e|---------------------------------|
B|---------------------------------|
G|--2--2--2--2--2--2---4--4--5--5--|
D|--2--2--2--2--2--2---4--4--4--4--|
A|--0--0--0--0--0--0---2--2--3--3--|
E|---------------------------------|

GUITAR (Lead):

e|-----------------------------------------------------------------------|
B|-----------------------------t-10-p-5-h-7--t-12-p-5-h-7--t-14-p-5-h-7--|
G|--t-9-p-4-h-6--t-11-p-4-h-6--------------------------------------------|
D|-----------------------------------------------------------------------|
A|-----------------------------------------------------------------------|
E|-----------------------------------------------------------------------|

GUITAR (Vocals):

e|---------------------------------|
B|------9----9-----------9---------|
G|--11----------11----------11--9--|
D|--------------------9------------|
A|---------------------------------|
E|---------------------------------|

GUITAR (Harmony):

e|------------------------------------|
B|--10--12----12--10-------12--10--9--|
G|----------------------9-------------|
D|------------------------------------|
A|------------------------------------|
E|------------------------------------|

BASS:

G|----------------------------------------------------|
D|-----------/-7---7--7--7----------------------------|
A|--0--0--0------------------2--2--2--2---3--3--3--3--|
E|----------------------------------------------------|

GUITAR (Rhythm):

e|---------------------------------------|
B|---------------------------------------|
G|--6--6--6--6--6--6---------------------|
D|--6--6--6--6--6--6---2--2--2--2--2--2--|
A|--4--4--4--4--4--4---2--2--2--2--2--2--|
E|---------------------0--0--0--0--0--0--|

GUITAR (Lead):

e|-----------------------------------------------------------------------|
B|-----------------------------t-10-p-5-h-7--t-12-p-5-h-7--t-14-p-5-h-7--|
G|--t-9-p-4-h-6--t-11-p-4-h-6--------------------------------------------|
D|-----------------------------------------------------------------------|
A|-----------------------------------------------------------------------|
E|-----------------------------------------------------------------------|

GUITAR (Vocals):

e|-----------------------------------------|
B|---------------------------------12--12--|
G|--11--11--9--9--------9------------------|
D|----------------9--9-------9--9----------|
A|-----------------------------------------|
E|-----------------------------------------|

GUITAR (Harmony):

e|---------------------------------12--12--|
B|--10--10--9--9--------9------------------|
G|----------------9--9-------9--9----------|
D|-----------------------------------------|
A|-----------------------------------------|
E|-----------------------------------------|

BASS:

G|---------------------------------------------------16--16--------|
D|-------------------------------13--14--13------------------------|
A|--4--4---/-16--16--16--14--16--------------14--14----------------|
E|-----------------------------------------------------------12-\--|

GUITAR (Rhythm):

e|---------------------------------|
B|---------------------------------|
G|--2--2--2--2--2--2---4--4--5--5--|
D|--2--2--2--2--2--2---4--4--4--4--|
A|--0--0--0--0--0--0---2--2--3--3--|
E|---------------------------------|

GUITAR (Lead):

e|-----------------------------------------------------------------------|
B|-----------------------------t-10-p-5-h-7--t-12-p-5-h-7--t-14-p-5-h-7--|
G|--t-9-p-4-h-6--t-11-p-4-h-6--------------------------------------------|
D|-----------------------------------------------------------------------|
A|-----------------------------------------------------------------------|

E|-----------------------------------------------------------------------|

GUITAR (Vocals):

e|--------------------------------|
B|-----12--12----9-------9--9-----|
G|------------------11---------9--|
D|--9-----------------------------|
A|--------------------------------|
E|--------------------------------|

GUITAR (Harmony):

e|-----12--12------------------------|
B|---------------12--10---12--12--9--|
G|--9--------------------------------|
D|-----------------------------------|
A|-----------------------------------|
E|-----------------------------------|

BASS:

G|--------------------------------------------------------|
D|-----------/-7---7--7--7---9--9--9--9---10--10--10--10--|
A|--0--0--0-----------------------------------------------|
E|--------------------------------------------------------|

GUITAR (Rhythm):

e|-------------------------------------|------------|
B|-------------------------------------|------------|
G|--6--6--6--6--6--6---6--6--6--6---4--|--2------4--|
D|--6--6--6--6--6--6---6--6--6--6---4--|--2------4--|
A|--4--4--4--4--4--4---4--4--4--4---2--|--0------2--|
E|-------------------------------------|------------|

GUITAR (Lead):

e|----------------------------------------------------------------------|------------------|
B|--t-17-p-5-h-7--t-19-p-5-h-7--t-17-p-5-h-7--t-19-p-5-h-7--t-17--t-19--|--t-17------t-19--|
G|----------------------------------------------------------------------|------------------|
D|----------------------------------------------------------------------|------------------|
A|----------------------------------------------------------------------|------------------|
E|----------------------------------------------------------------------|------------------|

GUITAR (Vocals):

e|----------------|-----------------|
B|--------12--12--|---------12--12--|
G|----------------|-----------------|
D|--9--9----------|--9--9-----------|
A|----------------|-----------------|
E|----------------|-----------------|

GUITAR (Harmony):

e|--------12--12--|---------12--11--|
B|----------------|-----------------|
G|--9--9----------|--9--9-----------|
D|----------------|-----------------|
A|----------------|-----------------|
E|----------------|-----------------|

BASS:

G|----------13------13------------------------------16--16--------|------------|
D|--11--11------11--------------13--14--13--16--16----------------|------------|
A|----------------------14--16------------------------------14-\--|--0------2--|
E|----------------------------------------------------------------|------------|


Outro:

GUITAR (Rhythm):

e|----------------------------------------------------|
B|----------------------------------------------------|
G|--6--x--x--x----------------------------------------|
D|--6--x--x--x---6--x--x--x---7--x--x--x--x--x--9--x--|
A|--4--x--x--x---6--x--x--x---7--x--x--x--x--x--9--x--|
E|---------------4--x--x--x---5--x--x--x--x--x--7--x--|

GUITAR (Vocals):

e|-----|------------------------------------------------|
B|--9--|--9--9--9--9--------------9------------------9--|
G|-----|--------------11--9--11-------11--9--9--9-------|
D|-----|------------------------------------------------|
A|-----|------------------------------------------------|
E|-----|------------------------------------------------|

GUITAR (Harmony):

e|------|------------------------------------------------------|
B|--12--|--12--12--12--12--10--9--10---12---10--9--9--9----12--|
G|------|------------------------------------------------------|
D|------|------------------------------------------------------|
A|------|------------------------------------------------------|
E|------|------------------------------------------------------|

BASS:

G|-----------------------------------------------------|
D|-----------------------------------------------------|
A|--4--4--4--4-----------------------------------------|
E|---------------4--4--4--4---5--5--5--5--5--5---7--7--|

GUITAR (Rhythm):

e|----------------------------------------------------|
B|----------------------------------------------------|
G|--6--x--x--x----------------------------------------|
D|--6--x--x--x---6--x--x--x---7--x--x--x--x--x--x--x--|
A|--4--x--x--x---6--x--x--x---7--x--x--x--x--x--x--x--|
E|---------------4--x--x--x---5--x--x--x--x--x--x--x--|

GUITAR (Vocals):

e|----------------------------------------|
B|--9--9--9--9--------------9----------9--|
G|--------------11--9--11-------9---------|
D|----------------------------------------|
A|----------------------------------------|
E|----------------------------------------|

GUITAR (Harmony):

e|----------------------------------------------|
B|--12--12--12--12--10--9--10---12---9------12--|
G|----------------------------------------------|
D|----------------------------------------------|
A|----------------------------------------------|
E|----------------------------------------------|

BASS:

G|----------------------------------------------------|
D|----------------------------------------------7--7--|
A|--4--4--4--4----------------------------------------|
E|---------------4--4--4--4---5--5--5--5--5--5--------|

GUITAR (Rhythm):

e|----------------------------------------------------|
B|----------------------------------------------------|
G|--6--x--x--x----------------------------------------|
D|--6--x--x--x---6--x--x--x---7--x--x--x--x--x--9--9--|
A|--4--x--x--x---6--x--x--x---7--x--x--x--x--x--9--9--|
E|---------------4--x--x--x---5--x--x--x--x--x--7--7--|

GUITAR (Vocals):

e|--------------------------------------------|
B|--9--9--9--9----------12---/-14-------------|
G|--------------11--9---------------11---\-9--|
D|--------------------------------------------|
A|--------------------------------------------|
E|--------------------------------------------|

GUITAR (Harmony):

e|--------------------------11---/-14-------------|
B|--12--12--12--12--10--9---------------10---\-9--|
G|------------------------------------------------|
D|------------------------------------------------|
A|------------------------------------------------|
E|------------------------------------------------|

BASS:

G|----------------------------------------------------|
D|-------------------------------------------------9--|
A|--4--4--4--4----------------------------------------|
E|---------------4--4--4--4---5--5--5--5--5--5--7-----|

GUITAR (Rhythm):

e|--------|
B|--------|
G|--2--2--|
D|--2--2--|
A|--0--0--|
E|--------|

GUITAR (Lead):

e|---------------------------------------------------------------------------|
B|-----------------------------t-10-p-5-h-7--t-12-p-5-h-7--t-14-p-5-h-7-p-5--|
G|--t-9-p-4-h-6--t-11-p-4-h-6------------------------------------------------|
D|---------------------------------------------------------------------------|
A|---------------------------------------------------------------------------|
E|---------------------------------------------------------------------------|

BASS:

G|--------|
D|--------|
A|--0--0--|
E|--------|

~ HARUKA MIRAI ~

Haruka Mirai - Tron544
00:00 / 00:00

©2019 by Fefe - Tron544

Sigueme en:

  • YouTube - White Circle
  • Facebook - White Circle
  • Instagram - White Circle
  • Twitter - White Circle
This site was designed with the
.com
website builder. Create your website today.
Start Now