~ HARUKA KANATA ~

TABLATURAS ~ By Fefe - Tron544

 
 

Intro:

BASS:

G|----------------------------------------------------------------------|
D|----------------------------------------------------------------------|
A|----------------------------------------------------------------------|
E|--0-0-0-2-0-0-5-4--0-0-0-2-0-0-5-4--0-0-0-2-0-0-5-4--0-0-0-2-0-0-5-4--|

GUITAR (Rhythm):

e|--------------------------------------|
B|--------------------------------------|
G|--9-9------9-9----------9-9------9-9--|
D|--9-9------9-9----------9-9------9-9--|
A|--7-7------7-7----------7-7------7-7--|
E|--------------------------------------|

GUITAR (Lead):

e|--------------------------------------|
B|--------------------------------------|
G|--9-9------9-9----------9-9------9-9--|
D|--9-9------9-9----------9-9------9-9--|
A|--7-7------7-7----------7-7------7-7--|
E|--------------------------------------|

BASS:

G|----------------------------------------------------------------------|
D|----------------------------------------------------------------------|
A|----------------------------------------------------------------------|
E|--0-0-0-2-0-0-5-4--0-0-0-2-0-0-5-4--0-0-0-2-0-0-5-4--0-0-0-2-0-0-5-4--|

GUITAR (Rhythm):

e|------------------------------------------------------------|
B|------------------------------------------------------------|
G|--6--6-6-6-6-6-4--4-4-4-4-4-4-4--2--2-2-2-2-2-2--2-2-2-2-2--|
D|--6--6-6-6-6-6-4--4-4-4-4-4-4-4--2--2-2-2-2-2-2--2-2-2-2-2--|
A|--4--4-4-4-4-4-2--2-2-2-2-2-2-2--0--0-0-0-0-0-0--0-0-0-0-0--|
E|------------------------------------------------------------|

GUITAR (Lead):

e|-----------------------------------------------------------------------------|
B|-----------------------------------------------------------------------------|
G|--6--6-6-6-6-6-6-/-8--8-8-8-8-8-8-8-8-/-9--9-9-9-11-11-11-11-13-13-13-13-11--|
D|-----------------------------------------------------------------------------|
A|--4--4-4-4-4-4-4-/-6--6-6-6-6-6-6-6-6-/-7--7-7-7-9--9--9--9--11-11-11-11-9---|
E|-----------------------------------------------------------------------------|

BASS:

G|------------------------------------------------------------|
D|------------------------------------------------------------|
A|--4--4-4-4-4-4-2--2-2-2-2-2-2-2--0--0-0-0-0-0-0--0-0-0-0-0--|
E|------------------------------------------------------------|

 


Verse/Estrofa: x2

GUITAR (Vocals):

e|------|--------------------------------------------------------------------|
B|------|--------------------------------------------------------------------|
G|------|-----------------------------------------------------9--11-/-13--9--|
D|--11--|--9---11-9---11-11-/-13--11-9----11-9---11-9---11-9-----------------|
A|------|--------------------------------------------------------------------|
E|------|--------------------------------------------------------------------|

GUITAR (Rhythm):

e|-----|
B|-----|
G|-----|
D|--2--|
A|--2--|
E|--0--|

GUITAR (Lead):

  /~~~~~~~~~~~~~~~( REPEAT x2 / REPITE x2 )~~~~~~~~~~~~~~\
e|--------------------------------------------------------|
B|--------------------------------------------------------|
G|--------------------------------------------------------|
D|--------------------------------------------------------|
A|--------------------------------------------------------|
E|--(0)--x-x-x--x-x-x--x-x-x--x-x-x--x-x-x--x-x-x--x-x-x--|

BASS:

  /~~~~~( REPEAT x2 / REPITE x2 )~~~~\
G|------------------------------------|
D|------------------------------------|
A|------------------------------------|
E|--0-0-0-0-0-0-0-0--0-0-0-0-0-0-0-0--|

GUITAR (Vocals):

e|-------------------------------------|
B|-------------------------------------|
G|--9----11--11-/-13--11--9--8--8-h-9--|
D|-------------------------------------|
A|-------------------------------------|
E|-------------------------------------|

GUITAR (Rhythm):

e|-----------------------------------------------------------------|
B|-----------------------------------------------------------------|
G|--6--6-6-6-6-6-6--4--4-4-4-4-4-4--2--2-2-2-2-2-2--2-2-2-2-2-2-2--|
D|--6--6-6-6-6-6-6--4--4-4-4-4-4-4--2--2-2-2-2-2-2--2-2-2-2-2-2-2--|
A|--4--4-4-4-4-4-4--2--2-2-2-2-2-2--0--0-0-0-0-0-0--0-0-0-0-0-0-0--|
E|-----------------------------------------------------------------|

GUITAR (Lead):

e|-----------------------------------------------------------------------------|
B|-----------------------------------------------------------------------------|
G|--6--6-6-6-6-6-6-/-8--8-8-8-8-8-8-8-8-/-9--9-9-9-11-11-11-11-13-13-13-13-11--|
D|-----------------------------------------------------------------------------|
A|--4--4-4-4-4-4-4-/-6--6-6-6-6-6-6-6-6-/-7--7-7-7-9--9--9--9--11-11-11-11-9---|
E|-----------------------------------------------------------------------------|

BASS:

G|-----------------------------------------------------------------|
D|-----------------------------------------------------------------|
A|--4--4-4-4-4-4-4--2--2-2-2-2-2-2--0--0-0-0-0-0-0--0-0-0-0-0-0-0--|
E|-----------------------------------------------------------------|

 


Pre-Chorus/Pre-Estribillo:

GUITAR (Vocals):

e|----------------------------------------------------------------|
B|----------------------------------------------------------------|
G|----------------------------------------------------------------|
D|--11-11-11--13--13-/-14--11----------11-11-11--13--13-/-14--11--|
A|----------------------------------------------------------------|
E|----------------------------------------------------------------|

GUITAR (Rhythm):

e|---------------------------------------------------|
B|---------------------------------------------------|
G|--6--6--6--6--6--6--6--6---------------------------|
D|--6--6--6--6--6--6--6--6---6--6--6--6--6--6--6--6--|
A|--4--4--4--4--4--4--4--4---6--6--6--6--6--6--6--6--|
E|---------------------------4--4--4--4--4--4--4--4--|

GUITAR (Lead):

e|------7-7-9-9-----7-7-9-9-----7-7-------7-7-9-9-----7-7-9-9-----7-7--|
B|--9-9---------9-9---------9-9-------9-9---------9-9---------9-9------|
G|---------------------------------------------------------------------|
D|---------------------------------------------------------------------|
A|---------------------------------------------------------------------|
E|---------------------------------------------------------------------|

BASS:

G|-----------------------------------------------------|
D|-----------------------------------------------------|
A|--4--4--4--4---4--6--7--6----------------------------|
E|-------------4--------------4--4--4--4-0-4--4--2--4--|

GUITAR (Vocals):

e|------------------------------------|
B|------------------------------------|
G|---------------------------11-/-13--|
D|--11--11--13--13-/-14--11-----------|
A|------------------------------------|
E|------------------------------------|

GUITAR (Rhythm):

e|---------------------------------------------------|
B|---------------------------------------------------|
G|---------------------------9--9--9--9--9--9--9--8--|
D|--7--7--7--7--7--7--7--7---9--9--9--9--9--9--9--9--|
A|--7--7--7--7--7--7--7--7---7--7--7--7--7--7--7--6--|
E|--5--5--5--5--5--5--5--5---------------------------|

GUITAR (Lead):

e|------7-7-9-9-----7-7-9-9-----7-7-------7-7-9-9-----7-7-9-9-----7-7--|
B|--9-9---------9-9---------9-9-------9-9---------9-9---------9-9------|
G|---------------------------------------------------------------------|
D|---------------------------------------------------------------------|
A|---------------------------------------------------------------------|
E|---------------------------------------------------------------------|

BASS:

G|--------------------------------------------------------|
D|--------------------------------------------------------|
A|----------------------------7--7--7--7-/-9--7--7--6--6--|
E|--5--5--5--5-0-5--7--9--5-------------------------------|

GUITAR (Vocals):

e|----------------------------------------------------------------|
B|----------------------------------------------------------------|
G|----------------------------------------------------------------|
D|--11-11-11--13--13-/-14--11----------11-11-11--13--13-/-14--11--|
A|----------------------------------------------------------------|
E|----------------------------------------------------------------|

GUITAR (Rhythm):

e|---------------------------------------------------|
B|---------------------------------------------------|
G|--6--6--6--6--6--6--6--6---------------------------|
D|--6--6--6--6--6--6--6--6---6--6--6--6--6--6--6--6--|
A|--4--4--4--4--4--4--4--4---6--6--6--6--6--6--6--6--|
E|---------------------------4--4--4--4--4--4--4--4--|

GUITAR (Lead):

e|------7-7-9-9-----7-7-9-9-----7-7-------7-7-9-9-----7-7-9-9-----7-7--|
B|--9-9---------9-9---------9-9-------9-9---------9-9---------9-9------|
G|---------------------------------------------------------------------|
D|---------------------------------------------------------------------|
A|---------------------------------------------------------------------|
E|---------------------------------------------------------------------|

BASS:

G|-----------------------------------------------------|
D|-----------------------------------------------------|
A|--4--4--4--4---4--6--7--6----------------------------|
E|-------------4--------------4--4--4--4-0-4--4--2--4--|

GUITAR (Vocals):

e|-------------------------------------------------------|
B|-------------------------------------------------------|
G|----------------------------------------------11-/-13--|
D|--11-11-11--13--13-/-14--11--13-/-14-------------------|
A|-------------------------------------------------------|
E|-------------------------------------------------------|

GUITAR (Rhythm):

e|-----------------------------------------------|
B|-----------------------------------------------|
G|-----------------------------------------------|
D|--7---6---7---6---7--6---7---6---7---6---7--6--|
A|--7---6---7---6---7--6---7---6---7---6---7--6--|
E|--5---4---5---4---5--4---5---4---5---4---5--4--|

GUITAR (Lead):

e|-----------------------------------------------|
B|-----------------------------------------------|
G|-----------------------------------------------|
D|--7---6---7---6---7--6---7---6---7---6---7--6--|
A|--7---6---7---6---7--6---7---6---7---6---7--6--|
E|--5---4---5---4---5--4---5---4---5---4---5--4--|

BASS:

G|-----------------------------------------------|
D|-----------------------------------------------|
A|-----------------------------------------------|
E|--5---4---5---4---5--4---5---4---5---4---5--4--|

GUITAR (Rhythm):

e|-----|
B|-----|
G|-----|
D|--2--|
A|--2--|
E|--0--|

GUITAR (Lead):

e|---------------------------------------------------------------------|
B|---------------------------------------------------------------------|
G|------#-4-4---#-6-6-----------------------4-4-4-4--6-6-6-6-----------|
D|--2---#-4-4---#-6-6---#-7-7---#--2-2-2-2--4-4-4-4--6-6-6-6--7-7-7-7--|
A|--2---#-2-2---#-4-4---#-7-7---#--2-2-2-2--2-2-2-2--4-4-4-4--7-7-7-7--|
E|--0-------------------#-5-5---#--0-0-0-0--------------------5-5-5-5--|

BASS:

G|-------------------------|
D|-------------------------|
A|-------------2--/--7--7--|
E|--0----------------------|

 


Chorus/Estribillo:

GUITAR (Vocals):

e|---------|------------------------------------------------------|
B|---------|------------------------------------------------------|
G|--9-9-9--|--9--11-/-13----------9-9-9-9--11-/-13----------9-11--|
D|---------|------------------------------------------------------|
A|---------|------------------------------------------------------|
E|---------|------------------------------------------------------|

GUITAR (Rhythm):

e|--------------------------------------------------------------|
B|--------------------------------------------------------------|
G|--9--9-9--9-9-9--9--9-9--9-9-9--4--4-4--4-4-4--4--4-4--4-4-4--|
D|--9--9-9--9-9-9--9--9-9--9-9-9--4--4-4--4-4-4--4--4-4--4-4-4--|
A|--7--7-7--7-7-7--7--7-7--7-7-7--2--2-2--2-2-2--2--2-2--2-2-2--|
E|--------------------------------------------------------------|

GUITAR (Lead):

e|-------------------------------------------------------------------------------|
B|-------------------------------------------------------------------------------|
G|--9--9-9--9-9-9-9-9-9-9--9-9-9--9-/-11--11-11--11-11-11-11-11-11-11--11-11-11--|
D|-------------------------------------------------------------------------------|
A|--7--7-7--7-7-7-7-7-7-7--7-7-7--7-/-9---9--9---9--9--9--9--9--9--9---9--9--9---|
E|-------------------------------------------------------------------------------|

BASS:

G|--------------------------------------------------------------------|
D|--------------------------------------------------------------------|
A|--7--7-7-7-7-7-7--7-7-7-7-7-7-7-7--6--6-6-6-6-6-6--6-6-6-6-6-6-6-6--|
E|--------------------------------------------------------------------|

GUITAR (Vocals):

e|------------------------------------------------------------------------------|
B|------------------------------------------------------------------------------|
G|--11-/-13-13-11-9--9-9-11-11-/-13--11-9--9--11-9----11-/-13-13--13-13----9-9--|
D|------------------------------------------------------------------------------|
A|------------------------------------------------------------------------------|
E|------------------------------------------------------------------------------|

GUITAR (Rhythm):

e|-------------------------------------------------------------|
B|-------------------------------------------------------------|
G|--6--6-6--6-6-6--4--4-4--4-4-4--2--2-2-2--2-2-2--2-2-2--2-2--|
D|--6--6-6--6-6-6--4--4-4--4-4-4--2--2-2-2--2-2-2--2-2-2--2-2--|
A|--4--4-4--4-4-4--2--2-2--2-2-2--0--0-0-0--0-0-0--0-0-0--0-0--|
E|-------------------------------------------------------------|

GUITAR (Lead):

e|----------------------------------------------------------------------------|
B|----------------------------------------------------------------------------|
G|--14--13-14--14-14-14--13--11-13--13-13-13--9--#-14-14---#-13-13---#-14-14--|
D|-----------------------------------------------#---------#---------#--------|
A|--12--11-12--12-12-12--11--9--11--11-11-11--7--#-12-12---#-11-11---#-12-12--|
E|----------------------------------------------------------------------------|

BASS:

G|---------------------------------------------------------------|
D|---------------------------------------------------------------|
A|--4--4-4-4-4-4-4--2--2-2-2-2-2-2--0--0-0-0--0-0-0--0-0-0--0-0--|
E|---------------------------------------------------------------|

GUITAR (Vocals):

e|--------------------------------------------------------|
B|--------------------------------------------------------|
G|--9--11-/-13----------9-9-9-9--11-/-13----------9-9-11--|
D|--------------------------------------------------------|
A|--------------------------------------------------------|
E|--------------------------------------------------------|

GUITAR (Rhythm):

e|--------------------------------------------------------------|
B|--------------------------------------------------------------|
G|--9--9-9--9-9-9--9--9-9--9-9-9--4--4-4--4-4-4--4--4-4--4-4-4--|
D|--9--9-9--9-9-9--9--9-9--9-9-9--4--4-4--4-4-4--4--4-4--4-4-4--|
A|--7--7-7--7-7-7--7--7-7--7-7-7--2--2-2--2-2-2--2--2-2--2-2-2--|
E|--------------------------------------------------------------|

GUITAR (Lead):

e|-------------------------------------------------------------------------------|
B|-------------------------------------------------------------------------------|
G|--9--9-9--9-9-9-9-9-9-9--9-9-9--9-/-11--11-11--11-11-11-11-11-11-11--11-11-11--|
D|-------------------------------------------------------------------------------|
A|--7--7-7--7-7-7-7-7-7-7--7-7-7--7-/-9---9--9---9--9--9--9--9--9--9---9--9--9---|
E|-------------------------------------------------------------------------------|

BASS:

G|--------------------------------------------------------------------|
D|--------------------------------------------------------------------|
A|--7--7-7-7-7-7-7--7-7-7-7-7-7-7-7--6--6-6-6-6-6-6--6-6-6-6-6-6-6-6--|
E|--------------------------------------------------------------------|

GUITAR (Vocals):

e|--------------------------------------------------------------------------------|
B|--------------------------------------------------------------------------------|
G|--11-/-13-13-11-9--9-9-11-11-/-13--11-9--9-9-11-9------9-9--11-11-/-13-11-9--9--|
D|--------------------------------------------------------------------------------|
A|--------------------------------------------------------------------------------|
E|--------------------------------------------------------------------------------|

GUITAR (Rhythm):

e|-------------------------------------------------------------------|
B|-------------------------------------------------------------------|
G|--6--6-6--6-6-6--4--4-4--4-4-4-------------------------------------|
D|--6--6-6--6-6-6--4--4-4--4-4-4--7-6-2--7-6-2--7-6-2--7-6-2--7-9----|
A|--4--4-4--4-4-4--2--2-2--2-2-2--7-6-2--7-6-2--7-6-2--7-6-2--7-9----|
E|--------------------------------5-4-0--5-4-0--5-4-0--5-4-0--5-7-0--|

GUITAR (Lead):

e|-------------------------------------------------------------------------------|
B|-------------------------------------------------------------------------------|
G|--14--13-14--14-14-14--13--11-13--13-13-13-------------------------------------|
D|--------------------------------------------7-6-2--7-6-2--7-6-2--7-6-2--7-9----|
A|--12--11-12--12-12-12--11--9--11--11-11-11--7-6-2--7-6-2--7-6-2--7-6-2--7-9----|
E|--------------------------------------------5-4-0--5-4-0--5-4-0--5-4-0--5-7-0--|

BASS:

G|---------------------------------------------------------------------|
D|---------------------------------------------------------------------|
A|--4--4-4-4-4-4-4--2--2-2-2-2-2-2-------------------------------------|
E|----------------------------------5-4-0--5-4-0--5-4-0--5-4-0--5-7-0--|


Outro:

GUITAR (Rhythm):

e|------------------------------------------|
B|------------------------------------------|
G|-------------6-6-6-6-6-6--4-4-4-4-4-4--2--|
D|--2----------6-6-6-6-6-6--4-4-4-4-4-4--2--|
A|--2----------4-4-4-4-4-4--2-2-2-2-2-2--0--|
E|--0---------------------------------------|

GUITAR (Lead):

e|--0----0-------0---0----------------------------------------|
B|--0--------0---0-------0------------------------------------|
G|--1------------1-----------1---6-6-6-6-6-6--8-8-8-8-8-8--9--|
D|--2------------2--------------------------------------------|
A|--2------------2---------------4-4-4-4-4-4--6-6-6-6-6-6--7--|
E|--0------------0--------------------------------------------|

BASS:

G|------------------------------------------------------|
D|------------------------------------------------------|
A|---------2--/--7--7------4-4-4-4-4-4--2-2-2-2-2-2--0--|
E|--0---------------------------------------------------|

 

Haruka Kanata - Tron544
00:00 / 00:00

©2019 by Fefe - Tron544

Sigueme en:

  • YouTube - White Circle
  • Facebook - White Circle
  • Instagram - White Circle
  • Twitter - White Circle
This site was designed with the
.com
website builder. Create your website today.
Start Now