HARE HARE YUKAI

THE MELANCHOLY OF HARUHI SUZUMIYA

TABS ~ By Fefe (Tron544)

 

Verse/Estrofa:

 

e|-------------------------------|-----------------------------------------|

B|-------------------------------|-----8--9--8---------8--9--8-------------|

G|--8--8--7--8----10--10--8--10--|--8-----------8---8-----------10--8--10--|

D|-------------------------------|-----------------------------------------|

A|-------------------------------|-----------------------------------------|

E|-------------------------------|-----------------------------------------|

 

e|---------------------------------------|-----------------------------|

B|---------------------------------------|------------8------8---------|

G|--8--7--8--7-----7--10--8--7--7--8--8--|--7--8--10-----10-----10--8--|

D|--------------8------------------------|-----------------------------|

A|---------------------------------------|-----------------------------|

E|---------------------------------------|-----------------------------|

 

 

Pre-Chorus/Pre-Estribillo:

 

e|-----------------------------------------------|

B|--7--------------------------------------------|

G|-------10--8--6----------6---6--6-----6--8-----|

D|-------------------8--9------------8--------8--|

A|-----------------------------------------------|

E|-----------------------------------------------|

 

e|-------------------------------------------------------|---------------|

B|-------------------------------------------------------|--8--8--10--8--|

G|-----6-----------6------6--8---6--8--10---8--7--8--10--|---------------|

D|--8-----9--8--9------9---------------------------------|---------------|

A|-------------------------------------------------------|---------------|

E|-------------------------------------------------------|---------------|

Hare Hare Yukai - Tron544
00:00 / 00:00
DONATE%20BUTTON%20(EN)_edited.png

Chorus/Estribillo:

 

e|---------------------------------------|---------------------------------------8--|

B|--10--10---10--10---10--8-------8--10--|--10--10--10--10--10--10--11---10--11-----|

G|----------------------------10---------|------------------------------------------|

D|---------------------------------------|------------------------------------------|

A|---------------------------------------|------------------------------------------|

E|---------------------------------------|------------------------------------------|

 

e|--8--8----------------8--8--------------|--8--8--------------------|

B|--------11--10--------------11--10------|--------11--10--8------8--|

G|----------------10------------------10--|-------------------10-----|

D|----------------------------------------|--------------------------|

A|----------------------------------------|--------------------------|

E|----------------------------------------|--------------------------|

 

e|---------------------------------------|---------------------------------------8--|

B|--10--10---10--10---10--8-------8--10--|--10--10--10--10--10--10--11---10--11-----|

G|----------------------------10---------|------------------------------------------|

D|---------------------------------------|------------------------------------------|

A|---------------------------------------|------------------------------------------|

E|---------------------------------------|------------------------------------------|

 

e|--8--8----------------8--10--------------|------------------8-------------|

B|--------11--10----------------10--8------|--11--11--11--11-----10--10--8--|

G|----------------10-------------------10--|--------------------------------|

D|-----------------------------------------|--------------------------------|

A|-----------------------------------------|--------------------------------|

E|-----------------------------------------|--------------------------------|

 

e|--------------------------------------------|------------------------------------------|

B|------8--9---9--8-----------7--9---9--7-----|------------------------------------------|

G|--10---------------10----9---------------9--|--------9----8--9--8---9--8---9--8--9--8--|

D|--------------------------------------------|--9--9------------------------------------|

A|--------------------------------------------|------------------------------------------|

E|--------------------------------------------|------------------------------------------|

©2015 by Fefe - Tron544

Sigueme en:

  • YouTube - White Circle
  • Facebook - White Circle
  • Instagram - White Circle
  • Twitter - White Circle
This site was designed with the
.com
website builder. Create your website today.
Start Now