HACKING TO THE GATE

STEINS;GATE

TABS ~ By Fefe (Tron544)

 

Intro:

GUITAR (Rhythm):

e|----------------------------------------------|
B|----------------------------------------------|
G|--7------------------5--------4--x-x-x-4-4-4--|
D|--7------------7-----5--------5--x-x-x-5-5-5--|
A|--5--------4---------3--------2--x-x-x-2-2-2--|
E|----------------------------------------------|

e|---------------------------------------------------------------------|
B|---------------------------------------------------------------------|
G|--3--x-x-x-x-3-3-2--x-x-x-x-2-2-------------------(6)-x-x-x-x-x-x-x--|
D|--3--x-x-x-x-3-3-3--x-x-x-x-3-3-(5)-x-x-x-x-x-x-x-(5)-x-x-x-x-x-x-x--|
A|--1--x-x-x-x-1-1-0--x-x-x-x-0-0-(5)-x-x-x-x-x-x-x-(4)-x-x-x-x-x-x-x--|
E|--------------------------------(3)-x-x-x-x-x-x-x--------------------|


Verse/Estrofa:

GUITAR (Vocals):

e|--5-------------------------------------------------------|
B|-----6-6----6-5--6-6/8--------5----8--5-5-5-\3---------6--|
G|----------7---------------7-7----5------------------7-----|
D|----------------------------------------------------------|
A|----------------------------------------------------------|
E|----------------------------------------------------------|

e|-------------------------------------------5------------------|
B|--6h8--10-8---8-8-8h10----------8-8-\6-------8-6---6-6/8------|
G|------------------------9-9-------------------------------5---|
D|-----------------------------10-------------------------------|
A|--------------------------------------------------------------|
E|--------------------------------------------------------------|

GUITAR (Rhythm):

e|---------------------------------------------|
B|---------------------------------------------|
G|------------------7-5-6-7--------------------|
D|------------------------------------3/5------|
A|---------------------------5-7-8---------3---|
E|---------------------------------------------|

GUITAR (Vocals):

e|--5----------------------------------------------------5--|
B|-----6-6----6-5--6-6/8--------5----8--8/10-8-8-6----------|
G|----------7---------------7-7----5------------------7-----|
D|----------------------------------------------------------|
A|----------------------------------------------------------|
E|----------------------------------------------------------|

e|--6------------------------------------------------5----------|
B|-----6-6-----6-5--6-6/8----5-5-/6---6-6/8------------6-6/8-6--|
G|-----------7-------------5-----------------5-7----------------|
D|--------------------------------------------------------------|
A|--------------------------------------------------------------|
E|--------------------------------------------------------------|

GUITAR (Rhythm):

e|----------------------------------------------|
B|----------------------------------------------|
G|------------------7-7-7-------7--7-7--7-5-----|
D|------------------7-7-7--3-3--7--7-7--7-5--5--|
A|------------------5-5-5--3-3--5--5-5--5-3--5--|
E|-------------------------1-1---------------3--|

 


Pre-Chorus/Pre-Estribillo:

GUITAR (Vocals):

e|----------------------------------------------------------------|
B|-------11-10--8--6-8-8-p5----------11-10----8-8-\6-----10-8-----|
G|----7-------------------------------------9-----------------10--|
D|----------------------------10-10-------------------------------|
A|----------------------------------------------------------------|
E|----------------------------------------------------------------|

GUITAR (Rhythm):

e|---------------------------------------|
B|---------------------------------------|
G|---------5--------------------------3--|
D|---------5---------7-------3--------3--|
A|---------3---------7-------3--------1--|
E|-------------------5-------1-----------|

GUITAR (Vocals):

e|--------------------------------------------------5----------|
B|-----------10-8--10------------10--10-8-------------6-6/8-6--|
G|---7--7--7----------9--------------------5--7----------------|
D|-------------------------10-10-------------------------------|
A|-------------------------------------------------------------|
E|-------------------------------------------------------------|

GUITAR (Rhythm):

e|------------------------------------------------------------|
B|------------------------------------------------------------|
G|----(3)-x-x-x-x-5---x-x-x-x-5----------------7-7-7--7-5-----|
D|----(3)-x-x-x-x-5---x-x-x-x-5--7--x-x-x-x-7--7-7-7--7-5--5--|
A|----(1)-x-x-x-x-3---x-x-x-x-3--7--x-x-x-x-7--5-5-5--5-3--5--|
E|-------------------------------5--x-x-x-x-5--------------3--|

GUITAR (Vocals):

e|---------------------------------------------------------------|
B|-------11-10--8--6-8-8-p5----------11-10----8-8-\6-------------|
G|----7-------------------------------------9------------7-9-10--|
D|----------------------------10-10------------------------------|
A|---------------------------------------------------------------|
E|---------------------------------------------------------------|

GUITAR (Rhythm):

e|---------------------------------------|
B|---------------------------------------|
G|---------5--------------------------3--|
D|---------5---------7-------3--------3--|
A|---------3---------7-------3--------1--|
E|-------------------5-------1-----------|

GUITAR (Vocals):

e|-------------------------------------------------8--------------|
B|----8----------8---10-8---11-10--8-10-11---8-11----11-10--8-10--|
G|------10--9-10--------------------------------------------------|
D|----------------------------------------------------------------|
A|----------------------------------------------------------------|
E|----------------------------------------------------------------|

GUITAR (Rhythm):

e|---------------------------------------------------------------|
B|---------------------------------------------------------------|
G|----(3)-x-x-x-x-5---x-x-x-5-5-2--2-#-3--3-#-2--2-#-5--5-#-#-2--|
D|----(3)-x-x-x-x-5---x-x-x-5-5-2--2-#-3--3-#-2--2-#-5--5-#-#-2--|
A|----(1)-x-x-x-x-3---x-x-x-3-3-0--0-#-1--1-#-0--0-#-3--3-#-#-0--|
E|---------------------------------------------------------------|

Hacking to the Gate - Tron544
00:00 / 00:00
DONATE%20BUTTON%20(EN)_edited.png

Chorus/Estribillo:

GUITAR (Vocals):

e|------------------|-----------------------------------------------------------------------|
B|--------------12--|--13-12-----------12-12-\10---------------10---------------------------|
G|--14-14-13-14-----|--------12-12-------------------9-12-10------12------------------------|
D|------------------|---------------14--------------------------------12--/14-12h14-----14--|
A|------------------|-----------------------------------------------------------------------|
E|------------------|-----------------------------------------------------------------------|

GUITAR (Rhythm):

e|---------------------------------------------------------|
B|---------------------------------------------------------|
G|---------------------------7--7-#--------5--5-#-4-4-4-4--|
D|--7-7--5--2--3--3-3--3-3-3-7--7-#-5--5-#-5--5-#-5-5-5-5--|
A|--7-7--5--2--3--3-3--3-3-3-5--5-#-5--5-#-3--3-#-2-2-2-2--|
E|--5-5--3--0--1--1-1--1-1-1--------3--3-#-----------------|

GUITAR (Vocals):

e|------------------------------------------------------------------------------------|
B|--13-12-15-13-----12-12-\10-----10---------------10/12--------------------------12--|
G|---------------12------------------12-12/14-------------12--12/14---14-14-13-14-----|
D|----------------------------------------------14------------------------------------|
A|------------------------------------------------------------------------------------|
E|------------------------------------------------------------------------------------|

GUITAR (Rhythm):

e|---------------------------------------------------------|
B|---------------------------------------------------------|
G|---------------------------7--7-#------------------------|
D|--7-7--5--2--3--3-3--3-3-3-7--7-#-5--5-#-7--7-#-6-6-6-6--|
A|--7-7--5--2--3--3-3--3-3-3-5--5-#-5--5-#-7--7-#-7-7-7-7--|
E|--5-5--3--0--1--1-1--1-1-1--------3--3-#-5--5-#-4-4-4-4--|

GUITAR (Vocals):

e|------------------------------------------------------------------------------|
B|--13-12-----------12-12-\10---------------10-10h12------12--/13-10/12---------|
G|--------12-12-------------------9-12-10-------------12------------------------|
D|---------------14---------------------------------------------------------14--|
A|------------------------------------------------------------------------------|
E|------------------------------------------------------------------------------|

GUITAR (Rhythm):

e|---------------------------------------------------------|
B|---------------------------------------------------------|
G|---------------------------7--7-#--------5--5-#-4-4-4-4--|
D|--7-7--5--2--3--3-3--3-3-3-7--7-#-5--5-#-5--5-#-5-5-5-5--|
A|--7-7--5--2--3--3-3--3-3-3-5--5-#-5--5-#-3--3-#-2-2-2-2--|
E|--5-5--3--0--1--1-1--1-1-1--------3--3-#-----------------|

GUITAR (Vocals):

e|--------------------------------------------------------------------------|
B|--13-12-15-13-----12-12-/13-----13-12---------13/15-----------------------|
G|---------------12---------------------14---14--------12--12--14-16-14-----|
D|--------------------------------------------------------------------------|
A|--------------------------------------------------------------------------|
E|--------------------------------------------------------------------------|

GUITAR (Rhythm):

e|---------------------------------------------------------|----------------|
B|---------------------------------------------------------|----------------|
G|---------------------------7--7-#------------------------|----------------|
D|--7-7--5--2--3--3-3--3-3-3-7--7-#-5--5-#-7--7-7-7-7-7-7--|--7-7--5--2--3--|
A|--7-7--5--2--3--3-3--3-3-3-5--5-#-5--5-#-7--7-7-7-7-7-7--|--7-7--5--2--3--|
E|--5-5--3--0--1--1-1--1-1-1--------3--3-#-5--5-5-5-5-5-5--|--5-5--3--0--1--|

©2015 by Fefe - Tron544

Sigueme en:

  • YouTube - White Circle
  • Facebook - White Circle
  • Instagram - White Circle
  • Twitter - White Circle
This site was designed with the
.com
website builder. Create your website today.
Start Now