GURENGE

DEMON SLAYER

TABS ~ By Fefe (Tron544)

 

Intro:

GUITAR (Vocals):

e|----------------------------------------------------------|
B|--8-7-7/8-----8-7-7/8-------8-7---------------------------|
G|---------------------------------9--p-7-6/7--------7-7/9--|
D|------------------------------------------------9---------|
A|-------------------------10-------------------------------|
E|----------------------------------------------------------|

e|------------------------------|
B|-------8-8/10----8--10-10/12--|
G|----9-------------------------|
D|------------------------------|
A|------------------------------|
E|------------------------------|

GUITAR (Rhythm):

D|-----------------------------------------------------------------------------------|
A|-----------------------------------------------------------------------------------|
F|-----------------------------------------------------------------------------------|
C|--4--2--4--2--#-#-#-#-4--2--4--2--#-#-#-#-4--2--4--2--#-#-#-#-4--2--4--2--#-#-#-#--|
G|--4--2--4--2--#-#-#-#-4--2--4--2--#-#-#-#-4--2--4--2--#-#-#-#-4--2--4--2--#-#-#-#--|
C|--4--2--4--2--#-#-#-#-4--2--4--2--#-#-#-#-4--2--4--2--#-#-#-#-4--2--4--2--#-#-#-#--|

GUITAR (Lead):

e|-----------------------------------------|
B|--------12----------------12-------------|
G|--------15----------------15--------7-b--|
D|-----------------------------------------|
A|-----------------------------------------|
E|-----------------------------------------|


Verse/Estrofa:

GUITAR (Vocals):

e|----------------------------------------------------------------|
B|----7h8-7-------------------------------------------------------|
G|--9--------7-7/9-7-------------------------------------------7--|
D|-----------------------7-5-5-7-10\9-------------5-7--7/9-7-9----|
A|-------------------------------------7--------7-----------------|
E|----------------------------------------------------------------|

e|---------------------------------------------------------------------------|
B|----7h8-7----------------10-12-10-12-10-12-13\12--8------8-7-7-8-8/10---8--|
G|--9--------7-7/9-7---------------------------------------------------------|
D|----------------------12---------------------------------------------------|
A|---------------------------------------------------------------------------|
E|---------------------------------------------------------------------------|

e|-----------------------------------------8-/-10------------|
B|--10-8-----8-10/12-10---------10-8-----8----------------8--|
G|--------9---------------------------9----------------------|
D|-----------------------------------------------------------|
A|-----------------------------------------------------------|
E|-----------------------------------------------------------|

e|------------------------------------10--------------------------------|
B|--10-8-----8-10/12-10---10-12-10-12----12-10-8--------8-7-7-8-8/10----|
G|--------9-------------------------------------------------------------|
D|----------------------------------------------------------------------|
A|----------------------------------------------------------------------|
E|----------------------------------------------------------------------|

GUITAR (Lead):

e|-------------------------------------|
B|-------------------------------------|
G|-------------------------------------|
D|--------------------------------4-b--|
A|-------------------------------------|
E|-------------------------------------|

 


Pre-Chorus/Pre-Estribillo:

GUITAR (Vocals):

e|----------------------------------------------------------|
B|--8-7-7/8-----8-7-7/8-------8-7---------------------------|
G|---------------------------------9--p-7-6/7--------7-7/9--|
D|------------------------------------------------9---------|
A|-------------------------10-------------------------------|
E|----------------------------------------------------------|

e|--------------------------------------------------|
B|-------8-8/10----8--10-10/12------------------12--|
G|----9---------------------------------------------|
D|--------------------------------------12--12------|
A|--------------------------------------------------|
E|--------------------------------------------------|

GUITAR (Rhythm):

D|-------------------------------------------------------|
A|-------------------------------------------------------|
F|-------------------------------------------------------|
C|--(0)-x--x--x--(2)-x--x--x--(4)-x-6-7-(4)-4-x-4--------|
G|--(0)-x--x--x--(2)-x--x--x--(4)-x-----(4)-4-x-4--------|
C|--(0)-x--x--x--(2)-x--x--x--(4)-x-----(4)-4-x-4--------|

GUITAR (Lead):

e|----------------------------------------7(NH)--|
B|----------------------------------12-----------|
G|----------------------------------15-----------|
D|--------------------------2p0------------------|
A|-----------------------------------------------|
E|------------------------------3p0--------------|

Gurenge - Tron544
00:00 / 00:00
DONATE%20BUTTON%20(EN)_edited.png

Chorus/Estribillo:

GUITAR (Vocals):

e|------------------------------------------------------------------------------------------------|
B|-----12-15-12----12-12--------12-15-12----12-12------------------------------15--13--12---------|
G|--14----------14--------12-14----------14--------------14-14--------12-14-12------------14--12--|
D|-------------------------------------------------12-12--------12-12-----------------------------|
A|------------------------------------------------------------------------------------------------|
E|------------------------------------------------------------------------------------------------|

GUITAR (Rhythm):

D|--------------------------------------|
A|--------------------------------------|
F|-----------------------------6--------|
C|--0--------2--------4--------6--------|
G|--0--------2--------4--------4--------|
C|--0--------2--------4-----------------|

GUITAR (Vocals):

e|--------------------------------------------------------------|
B|--------------12-------------12-15-10/12------------------12--|
G|--12---12--14----14------14-----------------------------------|
D|----------------------12--------------------------12--12------|
A|--------------------------------------------------------------|
E|--------------------------------------------------------------|

GUITAR (Rhythm):

D|---------------------------------------------------------------|
A|---------------------------------------------------------------|
F|---------------------------------------------------------------|
C|--0--------3--------4--2--4--2--#-#-#-#-11--9--11--9--#-#-#-#--|
G|--0--------4--------4--2--4--2--#-#-#-#-11--9--11--9--#-#-#-#--|
C|--0--------3--------4--2--4--2--#-#-#-#-11--9--11--9--#-#-#-#--|

GUITAR (Vocals):

e|----------------------------------------------------------------------14/15-14------------------|
B|-----12-15-12----12-12-----------12-15-12----12----------------12--12------------15--12---------|
G|--14----------14--------12-12-14----------14----12--12-12--14---------------------------14--12--|
D|------------------------------------------------------------------------------------------------|
A|------------------------------------------------------------------------------------------------|
E|------------------------------------------------------------------------------------------------|

GUITAR (Rhythm):

D|--------------------------------------|
A|--------------------------------------|
F|--------------------------------------|
C|--0--------2--------3--------4--------|
G|--0--------2--------4--------4--------|
C|--0--------2--------3--------4--------|

GUITAR (Vocals):

e|---------------------------------------------|
B|---------------------------------------------|
G|--12---12--14-16-14----14-14--14/16----------|
A|---------------------------------------------|
E|---------------------------------------------|

GUITAR (Rhythm):

D|------------------------------------|
A|------------------------------------|
F|------------------------------------|
C|--0--------2-2-----4--2--4--2--4-4--|
G|--0--------2-2-----4--2--4--2--4-4--|
C|--0--------2-2-----4--2--4--2--4-4--|

©2015 by Fefe - Tron544

Sigueme en:

  • YouTube - White Circle
  • Facebook - White Circle
  • Instagram - White Circle
  • Twitter - White Circle
This site was designed with the
.com
website builder. Create your website today.
Start Now