GUREN NO YUMIYA

ATTACK ON TITAN

CHORDS ~ By Fefe (Tron544)

 

Chords used/Acordes utilizados:

A5: x.0.2.2.x.x or 5.7.7.x.x.x
B5: x.2.4.4.x.x.x or 7.9.9.x.x.x  -  B/D#: x.6.9.8.x.x
C5: x.3.5.5.x.x
C#5: x.4.6.6.x.x.x or 9.11.11.x.x.x
D5: x.5.7.7.x.x
Eb5: x.6.8.8.x.x
E5: 0.2.2.x.x.x or x.7.9.9.x.x
F5: x.8.10.10.x.x
F#5: 2.4.4.x.x.x  -  F#/A#: 6.9.8.x.x.x
G5: x.10.12.12.x.x or 3.5.5.x.x.x
G#5: 4.6.6.x.x.x  -  G#/B#: 8.11.10.x.x.x
G#7sus: 4.6.4.6.x.x  -  G#7: 4.6.4.5.x.x

 

   C#5
   Seid ihr das Essen? Nein, wir sind der Jäger!

 


| C#5 | C#5 B5 | A5 | A5 B5 |
| E5 | E5 D5 | C5 | C5 B5 |

 


  (G#5)          (F#5)(E5)              (F#5)
   Fumareta hana no... Namae mo shirazu ni
  (G#5)               (F#5)(E5)              F#5
   Chi ni ochita tori wa... Kaze wo machiwabiru
   G#5            F#5  E5              F#5
   Inotta tokoro de... Nani mo kawaranai
   G#5              F#5  E5
   Ima wo kaeru no wa... Tatakau kakugo da

 


   E5            D#5         G#5     F#/A#   B5     G#/B#
   Shikabane fumikoete... Susumu ishi wo warau buta yo
   C#5                 B5
   Kachiku no annei... Kyogi no hanei...
   A5                G#7sus G#7
   Shiseru garou no "jiyuu" wo!

 


   C#5        A5           B5         E5  B/D#
   Torawareta kutsujoku wa hangeki no koushi da
   C#5        A5          B5                 E5 B/D#
   Jouheki no sono kanata emono wo hofuru... Jäger!
   C#5         A5          B5          E5   B/D#
   Hotobashiru shoudou ni sono mi wo yakinagara
   C#5         A5           B5
   Tasogare ni hi wo ugatsu guren no yumiya

 


| C#5 | C#5 B5 | A5 | A5 B5 |
| E5 | E5 D5 | C5 | C5 D5 |
| E5 | E5 D5 | C5 | C5 D5 |
| G5 | G5 F5 | Eb5 | G5 ||

Guren no Yumiya - Tron544
00:00 / 00:00
DONATE%20BUTTON%20(EN)_edited.png

TABS ~ By Fefe (Tron544)

 

Intro:

e|-----------------------------|
B|------5-4-----------5-4------|
G|--6-6------4-4-6--6------4---|
D|-----------------------------|
A|-----------------------------|
E|-----------------------------|

e|------------------------------------------------------|
B|--9-------------------------9-------------------------|
G|-----9-11--8--9------8---------9-11--8--9--8----------|
D|-----------------11-----9---------------------11--9---|
A|------------------------------------------------------|
E|------------------------------------------------------|

e|------------------------------------------------------------------|
B|--12------------------------------12------------------------------|
G|------12-14--11--12------11-----------12-14--11--12--11-----------|
D|---------------------14------12--------------------------14--13---|
A|------------------------------------------------------------------|
E|------------------------------------------------------------------|


Verse/Estrofa:

  /~~~~~~~~~~~~( REPEAT x3 / REPITE x3 )~~~~~~~~~~~\
e|--------------------------------------------------|
B|--4-----------------------4-----------------------|
G|-----4-6--3--4-----3---------4-6--3--4--3---------|
D|----------------6-----4--------------------6--4---|
A|--------------------------------------------------|

E|--------------------------------------------------|

e|--------------------------------------------------|
B|--4-----------------------4-----------------------|
G|-----4-6--3--4-----3---------4-6--3--4--3---------|
D|----------------6-----4--------------------6--5---|
A|--------------------------------------------------|
E|--------------------------------------------------|


Pre-Chorus/Pre-Estribillo:

e|----------------------------------------------------------|
B|----------------------------------------------------------|
G|------------3-4-3--------------------3----3-4----4-5---6--|
D|--6---6-6-6-------6-5-5-----5-6----6----4------4----------|
A|--------------------------6------6------------------------|
E|----------------------------------------------------------|

e|-----------------------------------------------------|
B|-----------------------------------------------------|
G|---6-6-6----6--4-4-4----4--6--6-6-6----6-6-6----5----|
D|---------7-----------4--------------7----------------|
A|-----------------------------------------------------|
E|-----------------------------------------------------|

 


Chorus/Estribillo:

e|-----------------------------------------------------|
B|------5-4-----------5-4---------5-4------------------|
G|--6-6------4-4-6--6-----4---6-6------6--6---4----4---|
D|----------------------------------------------6------|
A|-----------------------------------------------------|
E|-----------------------------------------------------|

e|-------------------------------------------------------|
B|------5-4----------5-4----------5-4---------7/9---7----|
G|--6-6------4--6--6------4---6-6------6-4---------------|
D|-----------------------------------------6-------------|
A|-------------------------------------------------------|
E|-------------------------------------------------------|

e|-----------------------------------------------------|
B|------5-4----------5-4----------5-4------------------|
G|--6-6------4--6--6------4---6-6------6--6---4----4---|
D|----------------------------------------------6------|
A|-----------------------------------------------------|
E|-----------------------------------------------------|

e|---------------------------------------------|
B|------5-4----------5-4-----------5-4---------|
G|--6-6------4--6--6------4---4-6-------6-4-6--|
D|---------------------------------------------|
A|---------------------------------------------|
E|---------------------------------------------|


Outro:

e|------------------------------------------------------|
B|--9-------------------------9-------------------------|
G|-----9-11--8--9------8---------9-11--8--9--8----------|
D|-----------------11-----9---------------------11--9---|
A|------------------------------------------------------|
E|------------------------------------------------------|

e|------------------------------------------------------------------|
B|--12------------------------------12------------------------------|
G|------12-14--11--12------11-----------12-14--11--12--11-----------|
D|---------------------14------12--------------------------14--12---|
A|------------------------------------------------------------------|
E|------------------------------------------------------------------|

e|------------------------------------------------------------------|
B|--12------------------------------12------------------------------|
G|------12-14--11--12------11-----------12-14--11--12--11-----------|
D|---------------------14------12--------------------------14--12---|
A|------------------------------------------------------------------|

E|------------------------------------------------------------------|

e|------------------------------------------------------------------|
B|--15------------------------------15------------------------------|
G|------15-17--14--15------14-----------15-17--14-15------12--------|
D|---------------------17------15-----------------------------------|
A|------------------------------------------------------------------|
E|------------------------------------------------------------------|

©2015 by Fefe - Tron544

Sigueme en:

  • YouTube - White Circle
  • Facebook - White Circle
  • Instagram - White Circle
  • Twitter - White Circle
This site was designed with the
.com
website builder. Create your website today.
Start Now