GROOVY!

CARDCAPTOR SAKURA

TABS ~ By Fefe (Tron544)

 

Intro:

 

e|-------------------|-------------------|----------------------|

B|--8--8--10--8--10--|--8--8--10--8--10--|--8--8--10--8--8--10--|

G|-------------------|-------------------|----------------------|

D|-------------------|-------------------|----------------------|

A|-------------------|-------------------|----------------------|

E|-------------------|-------------------|----------------------|

 

 

Verse/Estrofa:

 

e|----------------------------------------------|

B|--------------8--10-----------------8--10-----|

G|--9--9--7--9---------9--9--9--7--9---------9--|

D|----------------------------------------------|

A|----------------------------------------------|

E|----------------------------------------------|

e|------------------------------|

B|------------------------------|

G|-----------------7--8--7------|

D|--10--10--7--10-----------10--|

A|------------------------------|

E|------------------------------|

 

e|-------------------|-------------------|--------------------------------------|

B|-------------------|-------------------|-----------------8-----------------8--|

G|------7--8--7------|------7--8--7------|--------------------10--10--8--10-----|

D|--10-----------10--|--10-----------10--|--10--10--7---------------------------|

A|-------------------|-------------------|-------------10-----------------------|

E|-------------------|-------------------|--------------------------------------|

 

e|----------------------------------------------|------------------------------|

B|--------------8--10-----------------8--10-----|------------------------------|

G|--9--9--7--9---------9--9--9--7--9---------9--|-----------------7--8--7------|

D|----------------------------------------------|--10--10--7--10-----------10--|

A|----------------------------------------------|------------------------------|

E|----------------------------------------------|------------------------------|

 

e|-------------------|-----------------------|-----------------------------------|

B|-------------------|-------------------10--|--11--10--8--10--10--13--11--9--8--|

G|------7--8--7------|------7--8--7----------|-----------------------------------|

D|--10-----------10--|--10-----------10------|-----------------------------------|

A|-------------------|-----------------------|-----------------------------------|

E|-------------------|-----------------------|-----------------------------------|

Groovy! - Tron544
00:00 / 00:00
DONATE%20BUTTON%20(EN)_edited.png

Chorus/Estribillo:

 

  /~~( REPEAT/REPITE x3 )~~\

e|--------------------------|------10--------------|

B|--10--12--13--10--12--13--|--13------13--10--13--|

G|--------------------------|----------------------|

D|--------------------------|----------------------|

A|--------------------------|----------------------|

E|--------------------------|----------------------|

 

  /~~( REPEAT/REPITE x3 )~~\

e|--------------------------|------10--------------|--------------|--10------|

B|--10--12--13--10--12--13--|--13------13--10--13--|--13--13--13--|------13--|

G|--------------------------|----------------------|--------------|----------|

D|--------------------------|----------------------|--------------|----------|

A|--------------------------|----------------------|--------------|----------|

E|--------------------------|----------------------|--------------|----------|

©2015 by Fefe - Tron544

Sigueme en:

  • YouTube - White Circle
  • Facebook - White Circle
  • Instagram - White Circle
  • Twitter - White Circle
This site was designed with the
.com
website builder. Create your website today.
Start Now