~ GOYA NO MACHIAWASE ~

TABLATURAS ~ By Fefe - Tron544

 

Intro:

 

GUITAR 1:

 

e|---------------------------------------------------|

B|---------------------------------------------------|

G|---------------------7-----------------------------|

D|---------------7--9-------------------7--9---------|

A|-----------10---------------------10--------10--9--|

E|--0--0--0----------------0--0--0-------------------|

 

GUITAR 3:

 

e|--------------------------------------------|

B|--17--17--17--17--17----20--20--20--20--20--|

G|--------------------------------------------|

D|--------------------------------------------|

A|--------------------------------------------|

E|--------------------------------------------|

 

GUITAR 1:

 

e|-----------------------------------------------|

B|-----------------------------------------------|

G|---------------------7--6----------------------|

D|---------------7--9--------9--7------7--9------|

A|-----------10--------------------10--------10--|

E|--0--0--0--------------------------------------|

 

GUITAR 3:

 

e|------------------------22--22--22--22--22--|

B|--22--22--22--22--22------------------------|

G|--------------------------------------------|

D|--------------------------------------------|

A|--------------------------------------------|

E|--------------------------------------------|

 

GUITAR 1:

 

e|-------------------------------------------------------------------------------------------------|

B|-------------------------------------------------------------------------------------------------|

G|---------------------7-------------------------------------------------7--6----------------------|

D|---------------7--9-------------------7--9-----------------------7--9--------9--7------7--9------|

A|-----------10---------------------10--------10--9------------10--------------------10--------10--|

E|--0--0--0----------------0--0--0--------------------0--0--0--------------------------------------|

 

GUITAR 3:

 

e|--------------------------------------------------------------------22--22--22--22--22--|

B|--17--17--17--17--17----20--20--20--20--20----22--22--22--22--22------------------------|

G|----------------------------------------------------------------------------------------|

D|----------------------------------------------------------------------------------------|

A|----------------------------------------------------------------------------------------|

E|----------------------------------------------------------------------------------------|

 

 

Verse/Estrofa:

 

GUITAR 1:

 

e|--------------------------------------|

B|--------------------------------------|

G|--------------------------------------|

D|--2------------2------3------------3--|

A|--2------5--7--2------3------------3--|

E|--0------------0------1------1--3--1--|

 

GUITAR 2:

 

e|------------------------------------------------------------------|

B|------------------------------------------------------------------|

G|--9--7--------------------------------------------7---------------|

D|--------9--7------7--9--9---9--9--9--7------7--9-----9--7--9---9--|

A|--------------10------------------------10------------------------|

E|------------------------------------------------------------------|

 

GUITAR 1:

 

e|--------------------------------------|

B|--------------------------------------|

G|--------------------------------------|

D|--2------------2------3------------3--|

A|--2------5--7--2------3------------3--|

E|--0------------0------1------1--3--1--|

 

GUITAR 2:

 

e|------------------------------------------------------------------------|

B|------------------------------------------------------------------------|

G|--9--9--7--7-----------------------------------------------7------------|

D|--------------9--7------7--9--9--9---9--9--9--7------7--9-----9--7------|

A|--------------------10---------------------------10-----------------10--|

E|------------------------------------------------------------------------|

 

GUITAR 3:

 

e|----------|

B|----------|

G|----------|

D|----------|

A|----------|

E|--5--(H)--|

 

 

Pre-Chorus/Estrofa:

 

GUITAR 1:

 

e|---------------------------------------------------------------------------------------------------|

B|---------------------------------------------------------------------------------------------------|

G|---------------------------------------------------------------------------------------------------|

D|--2--x--x--x--x--x--------2--x--x--x--x--x--x--x---3--x--x--x--x--x--------3--x--x--x--x--x--x--x--|

A|--2--x--x--x--x--x--5--7--2--x--x--x--x--x--x--x---3--x--x--x--x--x--------3--x--x--x--x--x--x--x--|

E|--0--x--x--x--x--x--------0--x--x--x--x--x--x--x---1--x--x--x--x--x--1--3--1--x--x--x--x--x--x--x--|

 

GUITAR 2:

 

e|---------------------------------------------|

B|---------------------------------------------|

G|---------------------------------------------|

D|--9--9--9--7------7------7--7--7-------------|

A|--------------10-----10-----------7--7-/-10--|

E|---------------------------------------------|

 

GUITAR 3:

 

e|-----------------------------|

B|-----------------------------|

G|-----------------------------|

D|--9--7-------------9--7------|

A|--------10--7--10--------10--|

E|-----------------------------|

 

GUITAR 1:

 

e|---------------------------------------------------------------------------------------------------|

B|---------------------------------------------------------------------------------------------------|

G|---------------------------------------------------------------------------------------------------|

D|--2--x--x--x--x--x--------2--x--x--x--x--x--x--x---3--x--x--x--x--x--------3--x--x--x--x--x--x--x--|

A|--2--x--x--x--x--x--5--7--2--x--x--x--x--x--x--x---3--x--x--x--x--x--------3--x--x--x--x--x--x--x--|

E|--0--x--x--x--x--x--------0--x--x--x--x--x--x--x---1--x--x--x--x--x--1--3--1--x--x--x--x--x--x--x--|

 

GUITAR 2:

 

e|-----------------------------------------------|

B|-----------------------------------------------|

G|-------------------------------------7---------|

D|--9--9--9--9--7------7------7--9--7-----7-/-9--|

A|-----------------10-----10---------------------|

E|-----------------------------------------------|

 

GUITAR 3:

 

e|-----------------------------|

B|-----------------------------|

G|-----------------------------|

D|--9--7-------------9--7------|

A|--------10--7--10--------10--|

E|-----------------------------|

 

GUITAR 1:

 

e|---------------------------15--15--15--14--12----------------------|

B|--------------12--11--15-----------------------15--14--12----------|

G|------11--12-----------------------------------------------14--12--|

D|--14---------------------------------------------------------------|

A|-------------------------------------------------------------------|

E|-------------------------------------------------------------------|

 

GUITAR 3:

 

e|-----------------------------|

B|-----------------------------|

G|-----------------------------|

D|--9--7-------------9--7------|

A|--------10--7--10--------10--|

E|-----------------------------|

 

GUITAR 1:

 

e|--13-h-15-p-13----------------15--17--13-h-15-p-13--|

B|----------------13-h-15-p-13------------------------|

G|----------------------------------------------------|

D|----------------------------------------------------|

A|----------------------------------------------------|

E|----------------------------------------------------|

 

GUITAR 2:

 

e|------------------------------------------------|

B|------------------------------------------------|

G|------------------------------------------------|

D|--9--9--9--7------7------7-----7--7-------------|

A|--------------10-----10-----10-------7--7-/-10--|

E|------------------------------------------------|

 

GUITAR 1:

 

e|---------------------------15--15--15--14--15--17--22----------|

B|--------------12--11--15-------------------------------22--20--|

G|------11--12---------------------------------------------------|

D|--14-----------------------------------------------------------|

A|---------------------------------------------------------------|

E|---------------------------------------------------------------|

 

GUITAR 2:

 

e|------------------------|

B|------------------------|

G|------------------------|

D|--9--9--9--7------7--9--|

A|--------------10--------|

E|------------------------|

 

GUITAR 3:

 

e|----------------------------------------------------|

B|----------------------------------------------------|

G|----------------------------------------------------|

D|--9--7-------------9--7--------3--3--3--3--3--3--3--|

A|--------10--7--10--------10-------------------------|

E|----------------------------------------------------|

 

GUITAR 1:

 

e|--19----19---19----19----19----19----19----|

B|--22-b--22-b-22-b--22-b--22-b--22-b--22-b--|

G|-------------------------------------------|

D|-------------------------------------------|

A|-------------------------------------------|

E|-------------------------------------------|

 

 

Chorus/Estribillo:

 

GUITAR 1:

 

e|---------------------------------------------------------------|

B|---------------------------------------------------------------|

G|----------------------------------5--5--5--5--5---4--4---7--7--|

D|--2--2--2--2--2---7--7--7--7--7---5--5--5--5--5---4--4---7--7--|

A|--2--2--2--2--2---7--7--7--7--7---3--3--3--3--3---2--2---5--5--|

E|--0--0--0--0--0---5--5--5--5--5--------------------------------|

 

GUITAR 2:

 

e|------------------------------------------------------------|

B|-----------7--8--7------------------8--8--7-----------------|

G|--9--9--9-----------9--7---7--7--7-----------7--9--7--------|

D|------------------------------------------------------9--7--|

A|------------------------------------------------------------|

E|------------------------------------------------------------|

 

GUITAR 3:

 

e|--------------------------------------------------------------------22--22--22--22--22--|

B|--17--17--17--17--17----15--15--15--15--15----20--20--20--20--20------------------------|

G|----------------------------------------------------------------------------------------|

D|----------------------------------------------------------------------------------------|

A|----------------------------------------------------------------------------------------|

E|----------------------------------------------------------------------------------------|

 

GUITAR 1:

 

e|---------------------------------------------------------------|

B|---------------------------------------------------------------|

G|----------------------------------5--5--5--5--5---7--7---4--4--|

D|--2--2--2--2--2---7--7--7--7--7---5--5--5--5--5---7--7---4--4--|

A|--2--2--2--2--2---7--7--7--7--7---3--3--3--3--3---5--5---2--2--|

E|--0--0--0--0--0---5--5--5--5--5--------------------------------|

 

GUITAR 2:

 

e|-------------------------------------------------------------|

B|-----------7--8--7------------------8--8--7-----10--8--7-----|

G|--9--9--9-----------9--7---7--7--7-----------7------------9--|

D|-------------------------------------------------------------|

A|-------------------------------------------------------------|

E|-------------------------------------------------------------|

 

GUITAR 3:

 

e|--------------------------------------------------------------------22--22--22--22--22--|

B|--17--17--17--17--17----15--15--15--15--15----20--20--20--20--20------------------------|

G|----------------------------------------------------------------------------------------|

D|----------------------------------------------------------------------------------------|

A|----------------------------------------------------------------------------------------|

E|----------------------------------------------------------------------------------------|

 

GUITAR 1:

 

e|---------------------------------------------------------------|

B|---------------------------------------------------------------|

G|----------------------------------5--5--5--5--5---4--4---7--7--|

D|--2--2--2--2--2---7--7--7--7--7---5--5--5--5--5---4--4---7--7--|

A|--2--2--2--2--2---7--7--7--7--7---3--3--3--3--3---2--2---5--5--|

E|--0--0--0--0--0---5--5--5--5--5--------------------------------|

 

GUITAR 2:

 

e|------------------------------------------------------------|

B|-----------7--8--7------------------8--8--7-----------------|

G|--9--9--9-----------9--7---7--7--7-----------7--9--7--------|

D|------------------------------------------------------9--7--|

A|------------------------------------------------------------|

E|------------------------------------------------------------|

 

GUITAR 3:

 

e|--------------------------------------------------------------------22--22--22--22--22--|

B|--17--17--17--17--17----15--15--15--15--15----20--20--20--20--20------------------------|

G|----------------------------------------------------------------------------------------|

D|----------------------------------------------------------------------------------------|

A|----------------------------------------------------------------------------------------|

E|----------------------------------------------------------------------------------------|

 

GUITAR 1:

 

e|------------------------------------------------------------|

B|------------------------------------------------------------|

G|----------------------------------5--5--5--5--5---7--7---4--|

D|--2--2--2--2--2---7--7--7--7--7---5--5--5--5--5---7--7---4--|

A|--2--2--2--2--2---7--7--7--7--7---3--3--3--3--3---5--5---2--|

E|--0--0--0--0--0---5--5--5--5--5-----------------------------|

 

GUITAR 2:

 

e|-------------------------------------------------------------|

B|-----------7--8--7------------------8--8--7-----10--8--7-----|

G|--9--9--9-----------9--7---7--7--7-----------7------------9--|

D|-------------------------------------------------------------|

A|-------------------------------------------------------------|

E|-------------------------------------------------------------|

 

GUITAR 3:

 

e|--------------------------------------------------------------------22--22--22--22--22--|

B|--17--17--17--17--17----15--15--15--15--15----20--20--20--20--20------------------------|

G|----------------------------------------------------------------------------------------|

D|----------------------------------------------------------------------------------------|

A|----------------------------------------------------------------------------------------|

E|----------------------------------------------------------------------------------------|

 

GUITAR 1:

 

e|---------------------------------|

B|---------------------------------|

G|--5--5--5--5--5---4--4--4--4--4--|

D|--5--5--5--5--5---4--4--4--4--4--|

A|--3--3--3--3--3---2--2--2--2--2--|

E|---------------------------------|

 

GUITAR 2:

 

e|--------------------------------------|

B|--------------------------7--7--7--7--|

G|--9--9--9--7-----9--9--9--------------|

D|--------------9-----------------------|

A|--------------------------------------|

E|--------------------------------------|

 

GUITAR 3:

 

e|--------------------------------------------------------------|

B|--------------------------------------------------------------|

G|--9--9--9--9--11--11--11--11--12--12--12--12--11--11--11--11--|

D|--------------------------------------------------------------|

A|--------------------------------------------------------------|

E|--------------------------------------------------------------|

 

GUITAR 1:

 

e|---------------------------------|

B|---------------------------------|

G|---------------------------------|

D|--2--2--2--2--2---5--5--5--5--5--|

A|--2--2--2--2--2---5--5--5--5--5--|

E|--0--0--0--0--0---3--3--3--3--3--|

 

GUITAR 2:

 

e|-----------------------------7--7--|

B|-----------------------------------|

G|--9--9--9--7-----9--9--9--7--------|

D|--------------9--------------------|

A|-----------------------------------|

E|-----------------------------------|

 

GUITAR 3:

 

e|--------------------------------------------------------------|

B|------------------------------10--10--10--10------------------|

G|--9--9--9--9--11--11--11--11------------------11--11--11--11--|

D|--------------------------------------------------------------|

A|--------------------------------------------------------------|

E|--------------------------------------------------------------|

 

GUITAR 1:

 

e|---------------------------------|

B|---------------------------------|

G|--5--5--5--5--5---4--4--4--4--4--|

D|--5--5--5--5--5---4--4--4--4--4--|

A|--3--3--3--3--3---2--2--2--2--2--|

E|---------------------------------|

 

GUITAR 2:

 

e|-----------------------------------|

B|-----------------------7--7--7--7--|

G|--9--9--7-----9--9--9--------------|

D|-----------9-----------------------|

A|-----------------------------------|

E|-----------------------------------|

 

GUITAR 3:

 

e|--------------------------------------------------------------|

B|--------------------------------------------------------------|

G|--9--9--9--9--11--11--11--11--12--12--12--12--11--11--11--11--|

D|--------------------------------------------------------------|

A|--------------------------------------------------------------|

E|--------------------------------------------------------------|

 

GUITAR 1:

 

e|---------------------------------|

B|---------------------------------|

G|---------------------------------|

D|--2--2--2--2--2---5--5--5--5--5--|

A|--2--2--2--2--2---5--5--5--5--5--|

E|--0--0--0--0--0---3--3--3--3--3--|

 

GUITAR 2:

 

e|------------------------------|

B|------------------------------|

G|--9--9--9--7------------------|

D|--------------9--7--7--10--9--|

A|------------------------------|

E|------------------------------|

 

GUITAR 3:

 

e|--------------------------------------------------------------|

B|------------------------------12--12--12--12------------------|

G|--9--9--9--9--11--11--11--11------------------12--12--12--12--|

D|--------------------------------------------------------------|

A|--------------------------------------------------------------|

E|--------------------------------------------------------------|

 

GUITAR 1:

 

e|---------------------------------|

B|---------------------------------|

G|--5--5--5--5--5---4--4--4--4--4--|

D|--5--5--5--5--5---4--4--4--4--4--|

A|--3--3--3--3--3---2--2--2--2--2--|

E|---------------------------------|

 

GUITAR 2:

 

e|--------------------------------------|

B|--------------------------7--7--7--7--|

G|-----9--9--9--7--9--9--9--------------|

D|--9-----------------------------------|

A|--------------------------------------|

E|--------------------------------------|

 

GUITAR 3:

 

e|--------------------------------------------------------------|

B|--------------------------------------------------------------|

G|--9--9--9--9--11--11--11--11--12--12--12--12--11--11--11--11--|

D|--------------------------------------------------------------|

A|--------------------------------------------------------------|

E|--------------------------------------------------------------|

 

GUITAR 1:

 

e|---------------------------------|

B|---------------------------------|

G|---------------------------------|

D|--2--2--2--2--2---5--5--5--5--5--|

A|--2--2--2--2--2---5--5--5--5--5--|

E|--0--0--0--0--0---3--3--3--3--3--|

 

GUITAR 2:

 

e|-----------------------------------7--|

B|--------------------------------------|

G|--9--9--9--7-----9--9--9--9--7--7-----|

D|--------------9-----------------------|

A|--------------------------------------|

E|--------------------------------------|

 

GUITAR 3:

 

e|--------------------------------------------------------------|

B|------------------------------10--10--10--10------------------|

G|--9--9--9--9--11--11--11--11------------------11--11--11--11--|

D|--------------------------------------------------------------|

A|--------------------------------------------------------------|

E|--------------------------------------------------------------|

 

GUITAR 1:

 

e|---------------------|

B|---------------------|

G|--5--5--5--5--5---7--|

D|--5--5--5--5--5---7--|

A|--3--3--3--3--3---5--|

E|---------------------|

 

GUITAR 2:

 

e|--------------------------------|

B|--------------8--7-----7--8--8--|

G|--9--9--7-----------9-----------|

D|-----------9--------------------|

A|--------------------------------|

E|--------------------------------|

 

GUITAR 3:

 

e|----------------------------------|

B|----------------------------------|

G|--9--9--9--9--11--11--11--11--12--|

D|----------------------------------|

A|----------------------------------|

E|----------------------------------|

 

 

Outro:

 

GUITAR 1:

 

e|---------------------------------------------------|

B|---------------------------------------------------|

G|---------------------7-----------------------------|

D|---------------7--9-------------------7--9---------|

A|-----------10---------------------10--------10--9--|

E|--0--0--0----------------0--0--0-------------------|

 

GUITAR 3:

 

e|--------------------------------------------|

B|--17--17--17--17--17----20--20--20--20--20--|

G|--------------------------------------------|

D|--------------------------------------------|

A|--------------------------------------------|

E|--------------------------------------------|

 

GUITAR 1:

 

e|-----------------------------------------------|

B|-----------------------------------------------|

G|---------------------7--6----------------------|

D|---------------7--9--------9--7------7--9------|

A|-----------10--------------------10--------10--|

E|--0--0--0--------------------------------------|

 

GUITAR 3:

 

e|------------------------22--22--22--22--22--|

B|--22--22--22--22--22------------------------|

G|--------------------------------------------|

D|--------------------------------------------|

A|--------------------------------------------|

E|--------------------------------------------|

 

GUITAR 1:

 

e|--------------------------------------------------------------|

B|--------------------------------------------------------------|

G|---------------------7-h-9------------------------------------|

D|---------------7--9-------------------------------------------|

A|-----------10-------------------------------------------------|

E|--0--0--0----------------0--0------0--0------0--0------(1)-1--|

 

 

Goya no Machiawase - Tron544
00:00 / 00:00

©2019 by Fefe - Tron544

Sigueme en:

  • YouTube - White Circle
  • Facebook - White Circle
  • Instagram - White Circle
  • Twitter - White Circle
This site was designed with the
.com
website builder. Create your website today.
Start Now