GOTTA CATCH'EM ALL

POKéMON

TABS ~ By Fefe (Tron544)

 

Verse/Estrofa:

 

GUITAR 1:

 

e|---------------|

B|---------------|

G|--7---10---12--|

D|--7---10---12--|

A|--5---8----10--|

E|---------------|

 

  /~~~~~~~~~~~~~~~~~~~~REPEAT~x2~/~REPITE~x2~~~~~~~~~~~~~~~~~~~~~~~\

e|--------------|-----------------------------------|---------------|

B|--------------|-----------------------------------|---------------|

G|--10---7------|--10---5---7--8-------------5---7--|--7---10---12--|

D|--10---7---5--|--10---5---7--8----8----8---5---7--|--7---10---12--|

A|--8----5---5--|--8----3---5--6----8----8---3---5--|--5---8----10--|

E|-----------3--|-------------------6----6----------|---------------|

 

GUITAR 2:

 

  /~~~~~~~~~~~~~~~~~~~~~~~~~~~~~~~~~~~~~~~~REPEAT~x2~/~REPITE~x2~~~~~~~~~~~~~~~~~~~~~~~~~~~~~~~~~~~~~~~~~~~\

e|------------------------------|------------------------|-----------------------------|--------------------|

B|------------------------------|------------------------|-----------------------------|--------------------|

G|--7--7--7--7---7--5--5--------|--5--7--7--5--3--3-h-5--|--8--8--8--8--8--7--7--5-----|-----7--7--5-----7--|

D|------------------------3--3--|------------------------|--------------------------8--|--8-----------8-----|

A|------------------------------|------------------------|-----------------------------|--------------------|

E|------------------------------|------------------------|-----------------------------|--------------------|

Gotta Catch 'Em All - Tron544
00:00 / 00:00
DONATE%20BUTTON%20(EN)_edited.png

Chorus/Estribillo:

 

GUITAR 1:

 

e|------------------------------|-----------------------------|

B|------------------------------|-----------------------------|

G|--12------10------12------14--|--12------10------3---5---7--|

D|--12------10------12------14--|--12------10------3---5---7--|

A|--10------8-------10------12--|--10------8-------1---3---5--|

E|------------------------------|-----------------------------|

 

GUITAR 2:

 

e|------------------------------|---------------------------|-----------------------------------------------|

B|---------8--8-----------------|--8--8--10--11--10--8------|--8--8-----------------------------------------|

G|--7--10--------10--7----------|-----------------------10--|--------10--7------------------7--7---------7--|

D|----------------------10-/-8--|---------------------------|---------------10-/-8---8--10--------10--8-----|

A|------------------------------|---------------------------|-----------------------------------------------|

E|------------------------------|---------------------------|-----------------------------------------------|

 

GUITAR 3:

 

e|----------------------------------|------------|-------------------------|

B|---------8-----------8------------|---------8--|-------------------------|

G|--7--10-------7--10-----10-b--10--|--7--10-----|---------7--7---------7--|

D|----------------------------------|------------|--8--10--------10--8-----|

A|----------------------------------|------------|-------------------------|

E|----------------------------------|------------|-------------------------|

 

GUITAR 1:

 

e|------------------------|

B|------------------------|

G|--12----10----12----14--|

D|--12----10----12----14--|

A|--10----8-----10----12--|

E|------------------------|

 

GUITAR 2:

 

e|------------|----------------------------------------------|

B|---------8--|---------------------8--8--10--11--10--8------|

G|--7--10-----|--10-b--10-b-r-10-------------------------10--|

D|------------|----------------------------------------------|

A|------------|----------------------------------------------|

E|------------|----------------------------------------------|

 

GUITAR 3:

 

e|----------------------------------|

B|---------8-----------8------------|

G|--7--10-------7--10-----10-b--10--|

D|----------------------------------|

A|----------------------------------|

E|----------------------------------|

 

GUITAR 1:

 

e|---------------------------|--------------------------|

B|---------------------------|--------------------------|

G|--8------3------3---5---7--|--8---10------7---8---10--|

D|--8------3------3---5---7--|--8---10------7---8---10--|

A|--6------1------1---3---5--|--6---8-------5---6---8---|

E|---------------------------|--------------------------|

 

GUITAR 2:

 

e|------------------------------------------------|-------------------------------|

B|-----11--11--11------11--11----11--11--11-p-10--|---------8--11--8-----------8--|

G|--8--------------10-----------------------------|--7--10--------------7--10-----|

D|------------------------------------------------|-------------------------------|

A|------------------------------------------------|-------------------------------|

E|------------------------------------------------|-------------------------------|

 

GUITAR 3:

 

e|-----------------------------------|-----------------------------|

B|------------------11--11--11-p-10--|---------8--8-------------8--|

G|--8------10------------------------|--7--10------------7--10-----|

D|-----------------------------------|-----------------------------|

A|-----------------------------------|-----------------------------|

E|-----------------------------------|-----------------------------|

©2015 by Fefe - Tron544

Sigueme en:

  • YouTube - White Circle
  • Facebook - White Circle
  • Instagram - White Circle
  • Twitter - White Circle
This site was designed with the
.com
website builder. Create your website today.
Start Now