~ GOOD MORNING WORLD! ~

TABLATURAS ~ By Fefe - Tron544

 

Intro:

GUITAR (Vocals):

e|--------|--------------------------------------------|
B|--------|--5/6---5-5--------5--6/8-------------------|
G|--5--5--|--------------7-7----------5----------------|
D|--------|--------------------------------------------|
A|--------|--------------------------------------------|
E|--------|--------------------------------------------|

GUITAR (Rhythm):

e|------------------------------------|
B|------------------------------------|
G|------------------------------------|
D|---------------------------------7--|
A|---------------------------------7--|
E|---------------------------------5--|

GUITAR (Lead):

e|---------------------------------8--|
B|------------------------------------|
G|---------------------------------5--|
D|------------------------------------|
A|------------------------------------|
E|------------------------------------|

GUITAR (Rhythm):

e|-----------------------------------------------------------------|
B|-----------------------------------------------------------------|
G|-----------------------------------------------------------------|
D|---7-7-7-7-7-7-7-7-7-7-7-7-7-7-3--3-3-3-3-3-3-3-3-3-3-3-3-3-3-5--|
A|---7-7-7-7-7-7-7-7-7-7-7-7-7-7-3--3-3-3-3-3-3-3-3-3-3-3-3-3-3-5--|
E|---5-5-5-5-5-5-5-5-5-5-5-5-5-5-1--1-1-1-1-1-1-1-1-1-1-1-1-1-1-3--|

GUITAR (Lead):

e|---8-8-8-8-8-8-8-10-10-10-10-12-12-12-17--17-17-17-17-17-17-17-15-15-15-15-20-20-20-15--|
B|----------------------------------------------------------------------------------------|
G|---5-5-5-5-5-5-5-7--7--7--7--9--9--9--14--14-14-14-14-14-14-14-12-12-12-12-17-17-17-12--|
D|----------------------------------------------------------------------------------------|
A|----------------------------------------------------------------------------------------|
E|----------------------------------------------------------------------------------------|

GUITAR (Rhythm):

e|-----------------------------------------------------------------|
B|-----------------------------------------------------------------|
G|-----------------------------------------------------------------|
D|---5-5-5-5-5-5-5-6-6-6-6-6-6-6-7--7-7-7-7-7-7-7-7-7-7-7-7-7-7-7--|
A|---5-5-5-5-5-5-5-7-7-7-7-7-7-7-7--7-7-7-7-7-7-7-7-7-7-7-7-7-7-7--|
E|---3-3-3-3-3-3-3-4-4-4-4-4-4-4-5--5-5-5-5-5-5-5-5-5-5-5-5-5-5-5--|

GUITAR (Lead):

e|---15-15-15-15-15-15-15-13-13-13-13-13-13-13-12--12-12-12-10-10-10-10-8-8-8-8-7-7-7-5--|
B|---------------------------------------------------------------------------------------|
G|---12-12-12-12-12-12-12-10-10-10-10-10-10-10-9---9--9--9--7--7--7--7--5-5-5-5-4-4-4-2--|
D|---------------------------------------------------------------------------------------|
A|---------------------------------------------------------------------------------------|
E|---------------------------------------------------------------------------------------|


Verse/Estrofa:

GUITAR (Vocals):

e|-----------------------------------------------------|
B|-----------------------------------------------------|
G|----5-4-5---4-5-4------------5-4-5---4-5-4-----4-----|
D|-------------------7--5--7------------------7-----5--|
A|-----------------------------------------------------|
E|-----------------------------------------------------|

GUITAR (Rhythm):

e|--------------------------------------|
B|--------------------------------------|
G|--------------------------------------|
D|-----------------7--7---------7-7--5--|
A|-----------------7--7---------7-7--5--|
E|-----------------5--5---------5-5--3--|

GUITAR (Vocals):

e|----------------------------------------------|
B|----------------------------------------------|
G|----------------------------------------------|
D|----------------------------------------------|
A|--------------3-5-7--7--5--5--3--7--5-5-5--3--|
E|----------------------------------------------|

GUITAR (Rhythm):

e|----------------------------------------------------------------|
B|----------------------------------------------------------------|
G|----------------------------------------------------------------|
D|---5-5-5-5-5-5-5-5-5-5-5-5-5-5-3--3-3-3-3-3-3-3-5-5-5-5-5-5-5-7-|
A|---5-5-5-5-5-5-5-5-5-5-5-5-5-5-3--3-3-3-3-3-3-3-5-5-5-5-5-5-5-7-|
E|---3-3-3-3-3-3-3-3-3-3-3-3-3-3-1--1-1-1-1-1-1-1-3-3-3-3-3-3-3-5-|

GUITAR (Vocals):

e|-------------------------------------------------------|
B|--------------------------------------------------6/8--|
G|----5-4-5---4-5-4-----4------5-4-5---4-5-7--5--4-------|
D|-------------------7-----5-----------------------------|
A|-------------------------------------------------------|
E|-------------------------------------------------------|

GUITAR (Rhythm):

e|---------------------------------------------------|
B|---------------------------------------------------|
G|---------------------------------------------------|
D|----#----#-#---#-#---#-7--7-#----#-#---#-#-7-7--5--|
A|----#----#-#---#-#---#-7--7-#----#-#---#-#-7-7--5--|
E|----#----#-#---#-#---#-5--5-#----#-#---#-#-5-5--3--|

GUITAR (Lead):

e|-----|----------------------------------------------------------------------------|
B|--5--|---h6t13p5h6t13p5h6t15p5h6t13p5h6t13p5-h6t13p5h6t13p5h6t15p5h6t13p5h6t13p5--|
G|-----|----------------------------------------------------------------------------|
D|-----|----------------------------------------------------------------------------|
A|-----|----------------------------------------------------------------------------|
E|-----|----------------------------------------------------------------------------|

GUITAR (Vocals):

e|----------------------------------------------------|
B|-------6-5-6-5-\3-------5--5-----------5------------|
G|--------------------5-7-------7--7--5-----7-7-7--5--|
D|----------------------------------------------------|
A|----------------------------------------------------|
E|----------------------------------------------------|

GUITAR (Rhythm):

e|---------------------------------------------------------|
B|---------------------------------------------------------|
G|---------------------------------------------------------|
D|---5-5-5-5-5-5-5-5-5-5-5-5-5-5-3--3-3-3-3-3-3-3-5--------|
A|---5-5-5-5-5-5-5-5-5-5-5-5-5-5-3--3-3-3-3-3-3-3-5--------|
E|---3-3-3-3-3-3-3-3-3-3-3-3-3-3-1--1-1-1-1-1-1-1-3--------|

GUITAR (Lead):

e|-----------------------------------------------------------------|
B|---h6t13p5h6t13p5h6t15p5h6t13p5h6t13p5-h6t13p5h6t15p5h6t15-------|
G|-----------------------------------------------------------------|
D|-----------------------------------------------------------------|
A|-----------------------------------------------------------------|
E|-----------------------------------------------------------------|

 


Pre-Chorus/Pre-Estribillo:

GUITAR (Vocals):

e|---------------------------------------------------|
B|---------------------------------------------------|
G|--------5-5-5-5-5-5--5-/7--------4--4-4-4-4--4/5---|
D|---------------------------------------------------|
A|---------------------------------------------------|
E|---------------------------------------------------|

GUITAR (Rhythm):

e|--1--------------3--------------|
B|--1--------------3--------------|
G|--2--------------4--------------|
D|--3--------------5--------------|
A|--3--------------5--------------|
E|--1--------------3--------------|

GUITAR (Vocals):

e|------------------------------------------------------|
B|------------------------------------------------------|
G|------------5--5-5-5-5--5-/7--------7--7-7-7-7--7-/9--|
D|--5/7--5----------------------------------------------|
A|------------------------------------------------------|
E|------------------------------------------------------|

GUITAR (Rhythm):

e|--5--------------0--------------|
B|--5--------------0--------------|
G|--5--------------1--------------|
D|--7--------------2--------------|
A|--7--------------2--------------|
E|--5--------------0--------------|

GUITAR (Vocals):

e|----------------------------------------------------|
B|--------5--5--5-5--5/6--------8----8----12---12/13--|
G|-------------------------7--------------------------|
D|----------------------------------------------------|
A|----------------------------------------------------|
E|----------------------------------------------------|

GUITAR (Rhythm):

e|----------------------------------------------|
B|----------------------------------------------|
G|----------------------------------------------|
D|--7---7---7---7---7--7--5---5---5---5---5--5--|
A|--7---7---7---7---7--7--5---5---5---5---5--5--|
E|--5---5---5---5---5--5--3---3---3---3---3--3--|

GUITAR (Lead):

e|--------------5---------------------7---------|
B|----------5---------------------8-------------|
G|------------------------7---7-----------------|
D|--7---7---------------------------------------|
A|----------------------------------------------|
E|----------------------------------------------|

GUITAR (Vocals):

e|-----------------------------------------------------------|
B|---12-10---------------------------------------------------|
G|--------------------4--5-5--5-5--5-5/7---------------------|
D|---------------5-7-----------------------------------------|
A|-----------------------------------------------------------|
E|-----------------------------------------------------------|

GUITAR (Rhythm):

e|------------------------------------------------------------------------|
B|------------------------------------------------------------------------|
G|--7--7-7--7-7-7-9--9-9--9-9-9----------------------------3--------------|
D|--7--7-7--7-7-7-9--9-9--9-9-9-3-3--3-3--5-5--5-5--5-5-5--3--------------|
A|--5--5-5--5-5-5-7--7-7--7-7-7-3-3--3-3--5-5--5-5--5-5-5--1--------------|
E|------------------------------1-1--1-1--3-3--3-3--3-3-3-----------------|

GUITAR (Lead):

e|--------------------------------------------------------------------------------------------|
B|---------------------------------------------------------------------------6---/13----------|
G|--5-5-5-5-5-5-5-5--7-7-7-7-7-7-7-10-10--10-10--12-12--12-12--12-12-12--5--------------------|
D|--------------------------------------------------------------------------------------------|
A|--3-3-3-3-3-3-3-5--5-5-5-5-5-5-5-8--8---8--8---10-10--10-10--10-10-10-----------------------|
E|--------------------------------------------------------------------------------------------|

 


Chorus/Estribillo:

GUITAR (Vocals):

e|--------|------------------------------------------------|
B|--------|--5/6---5-5--------5--6/8-----------------------|
G|--5--5--|--------------7-7----------5-----------------5--|
D|--------|------------------------------------------5-----|
A|--------|------------------------------------------------|
E|--------|------------------------------------------------|

GUITAR (Rhythm):

e|-----------------------------------------------------------|
B|-----------------------------------------------------------|
G|--5--5-5--5-5-5-5--5-5--5-5-5------------------------------|
D|--5--5-5--5-5-5-5--5-5--5-5-5-3--3-3--3-3-3-3--3-3--3-3-3--|
A|--3--3-3--3-3-3-3--3-3--3-3-3-3--3-3--3-3-3-3--3-3--3-3-3--|
E|------------------------------1--1-1--1-1-1-1--1-1--1-1-1--|

GUITAR (Vocals):

e|-----------------------------------------------------|
B|-----------------5--5h6--5----------5--5h6--5--------|
G|--7---7-7---7-7-------------7-5---------------7--5---|
D|-----------------------------------------------------|
A|-----------------------------------------------------|
E|-----------------------------------------------------|

GUITAR (Rhythm):

e|-------------------------------------------------------|
B|-------------------------------------------------------|
G|--------------------------------------------3---3--3---|
D|--5--5-5--5-5-5-6--6-6--6-6-6-7--7-7--7-7-7-3---3--3---|
A|--5--5-5--5-5-5-7--7-7--7-7-7-7--7-7--7-7-7-1---1--1---|
E|--3--3-3--3-3-3-4--4-4--4-4-4-5--5-5--5-5-5------------|

GUITAR (Vocals):

e|-----------------8--7----------------------|
B|--8---5-8---5-8--------8--5---------6---5--|
G|-------------------------------------------|
D|-------------------------------------------|
A|-------------------------------------------|
E|-------------------------------------------|

GUITAR (Rhythm):

e|-----------------------------------------------------------|
B|-----------------------------------------------------------|
G|-----------------------------------------------------------|
D|--3--3-3--3-3-3-5--5-5--5-5-5-7--7-7--7-7-7-7--7-7--7-7-7--|
A|--3--3-3--3-3-3-5--5-5--5-5-5-7--7-7--7-7-7-7--7-7--7-7-7--|
E|--1--1-1--1-1-1-3--3-3--3-3-3-5--5-5--5-5-5-5--5-5--5-5-5--|

GUITAR (Vocals):

e|---------------------------------------------------|
B|-------6---5-------6---5----------------5-------8--|
G|--7-5---------7-5---------7-5-----5--7----7--5-----|
D|---------------------------------------------------|
A|---------------------------------------------------|
E|---------------------------------------------------|

GUITAR (Rhythm):

e|------------------------------------------------------|
B|------------------------------------------------------|
G|--7----7--7-9--9-9--9--9-9-------------------------5--|
D|--7----7--7-9--9-9--9--9-9-3--3-3--3-3-3-5---5--5--5--|
A|--5----5--5-7--7-7--7--7-7-3--3-3--3-3-3-5---5--5--3--|
E|---------------------------1--1-1--1-1-1-3---3--3-----|

GUITAR (Vocals):

e|-------------------------------------------|
B|--5--3------------------------5------6-/8--|
G|------------------------5--7----5--5-------|
D|-------------------------------------------|
A|-------------------------------------------|
E|-------------------------------------------|

GUITAR (Rhythm):

e|-----------------------------------------------------------|
B|-----------------------------------------------------------|
G|---5-5--5--5-5-5-5-5-5-5-5--5--5-5--5--5-5-5-5-5-5-5-5--5--|
D|---5-5--5--5-5-5-5-5-5-5-5--5--5-5--5--5-5-5-5-5-5-5-5--5--|
A|---3-3--3--3-3-3-3-3-3-3-3--3--3-3--3--3-3-3-3-3-3-3-3--3--|
E|-----------------------------------------------------------|

GUITAR (Lead):

e|------|------------------------15/17-15-------------12---------------------13-12-------15-----------------|
B|------|---13-15----13-15-12-13----------13/15-13-15---------13-15----13-15-------15----------15-15-15-----|
G|--12--|---------12--------------------------------------12--------12----------------12----12----------12--|
D|------|---------------------------------------------------------------------------------------------------|
A|------|---------------------------------------------------------------------------------------------------|
E|------|---------------------------------------------------------------------------------------------------|


GUITAR (Rhythm):

e|----------------------------------------------------|
B|----------------------------------------------------|
G|---5-5--5--5-5-5-5-5-5-5-5--5----6---7---8---9---5--|
D|---5-5--5--5-5-5-5-5-5-5-5--5----6---7---8---9---5--|
A|---3-3--3--3-3-3-3-3-3-3-3--3----4---5---6---7---3--|
E|----------------------------------------------------|

GUITAR (Lead):

e|------------------------15/17-15-------------12---------------------------------------------18-----|
B|---13-15----13-15-12-13----------13/15-13-15---------13-15----14-16----15-17----16-18--------------|
G|---------12--------------------------------------12--------13-------14-------15-------15-17----15--|
D|---------------------------------------------------------------------------------------------------|
A|---------------------------------------------------------------------------------------------------|
E|---------------------------------------------------------------------------------------------------|

Good Morning World! - Tron544
00:00 / 00:00

©2019 by Fefe - Tron544

Sigueme en:

  • YouTube - White Circle
  • Facebook - White Circle
  • Instagram - White Circle
  • Twitter - White Circle
This site was designed with the
.com
website builder. Create your website today.
Start Now