GOLDEN TIME LOVER

FULLMETAL ALCHEMIST: BROTHERHOOD

CHORDS ~ By Fefe (Tron544)

 

Chords used/Acordes utilizados:

 

Abaug: x.x.6.5.5.4

Bbm7: x.1.3.1.2.1

C7: x.3.5.3.5.3  -  Cm: x.3.5.5.4.3  -  Cm7: x.3.5.3.4.3

C#: x.4.6.6.6.4  -  C#maj7: x.4.6.5.6.4

D#: x.6.8.8.8.6

Fm: 1.3.3.1.1.1 or x.8.10.10.9.8  -  F11: x.8.8.8.8.8

G#: 4.6.6.5.4.4

 

 

| Fm F11 Fm | C# D# | Fm F11 Fm | C# D# |

 

Fm      F11    Fm           C#        D#

Shuuchuu dekitenai na mada karada ga mayotte irunda

Fm  F11     Fm      C#             D#

Furuete itanjya CONTROL shitatte buren da

Fm    F11    Fm           C#               D#

Taiyou mo tsuki mo nanmo kanzen ni kocchi muite inai ga

Fm   F11    Fm         C#             D#            C#   D#

Yaru shika nainda ii kikaseru you ni sou tsubuyaita 

Fm    F11     Fm           C#        D#

Jyoukyou wa warui ga tada nigedasun jya konjou nai na

Fm   F11   Fm              C#              D#

Tenbou wa nai ga dokyou de CLEAR suru shika nai ya

Fm  F11    Fm              C#        D#

Shoudou wa osaeta mama TARGET to no kankaku sagure

Fm  F11      Fm           C#    D#

Hitsuyou na mono wa katsu PRIDE o

    C#                  D#                Cm                Fm

Ajiwau no wa shouri no bishu ka sore tomo haiboku no kujyuu ka

           Bbm7           Cm7            C#maj7          Abaug

sono subete wa futatsu ni hitotsu ayatsuritai unmei no ito 

 

C#                    D#

Zekkou no GOLDEN TIME kono te de tsukame

Fm                    Cm               C#

Konshin no POKER FACE kimete shikakeru yo

                D#            G#     Fsus4   C7

ILLUSION no sekai he hikizurikonde 

C#                        D#

Saigen nai PRESSURE GAME sururi to nukete

Fm                   D#    G#      C#

Eikou no BORDERLINE tobikoeru tame ni

                   D#           C#

HOW MANY? Dore kurai no daishou ga iru?

    D#                  Fm  F11   Fm

Tebanashitakunai no wa dore?

Golden Time Lover - Tron544
00:00 / 00:00
DONATE%20BUTTON%20(EN)_edited.png

TABS ~ By Fefe (Tron544)

 

Verse/Estrofa:

 

e|--------------------------------------------------------|

B|--------------------------------------------------------|

G|--------------------------------------------------------|

D|-----------------------6--6--6--5--5--5-----------------|

A|--6--8--8--6--6--8--8--------------------8--8--6--6--8--|

E|--------------------------------------------------------|

 

e|-----------------------------------------------------|

B|-----------------------------------------------------|

G|-----------------------------------------------------|

D|-----------------------10--10--10--8--8--6--6--6--5--|

A|--8--8--8--6--6--8--8--------------------------------|

E|-----------------------------------------------------|

 

e|--------------------------------------------------------|

B|--------------------------------------------------------|

G|--------------------------------------------------------|

D|--6--5--6--5--5--6--8--6--5--5--6--5--6--5--------------|

A|--------------------------------------------8--8--6--8--|

E|--------------------------------------------------------|

 

e|-----------------------------------------------------------|

B|-----------------------------------------------------------|

G|-----------------------------------------------------------|

D|-----------------------6--6--6--5--5--5--------------------|

A|--8--8--8--6--6--8--8--------------------8--8--6--6--6--8--|

E|-----------------------------------------------------------|

 

e|--------------------------------------------------------|

B|--------------------------------------------------------|

G|--------------------------------------------------------|

D|-----------------------6--6--6--5--5--5-----------------|

A|--6--8--8--6--6--8--8--------------------8--8--6--6--8--|

E|--------------------------------------------------------|

 

e|---------------------------------------------------------|

B|---------------------------------------------------------|

G|---------------------------------------------------------|

D|-----------------------10--10--10--8--8--6--6--6--5---6--|

A|--8--8--8--6--6--8--8------------------------------------|

E|---------------------------------------------------------|

 

e|--------------------------------------------------------|

B|--------------------------------------------------------|

G|--------------------------------------------------------|

D|--6--5--6--5--5--6--8--6--5--5--6--5--6--5--------------|

A|--------------------------------------------8--8--6--8--|

E|--------------------------------------------------------|

 

e|------------------------------------------------|

B|------------------------------------------------|

G|-----------------------8------------------------|

D|--------------------------10--8--8----------10--|

A|--8--8--8--6--6--8--8---------------11--11------|

E|------------------------------------------------|

 

 

Pre-Chorus/Pre-Estribillo:

 

e|-----------------------------------------------------------------------------------------------|

B|--9---------9----------------------------------------------------------------------------------|

G|-----10--8-----10--8------8--10--------------------------------------8-------------------------|

D|----------------------10----------10--8--------------8--8--8--8--10----------10--8-------------|

A|-----------------------------------------11--10--11---------------------11----------11--11--8--|

E|-----------------------------------------------------------------------------------------------|

 

e|----------------------------------------------------------------------------------|

B|----------------------------------------------------------------------------------|

G|-----------------------------8---8----------8--------------8-/-10--8-/-10-\-8--8--|

D|-------10--8------------------------10--11-----11--10-----------------------------|

A|--11----------11--11--8--10----------------------------11-------------------------|

E|----------------------------------------------------------------------------------|

 

 

Chorus/Estribillo:

 

e|---------------------------------------------------------------------------------------------|

B|---------9----------9------------------------------------9----------9------------------------|

G|--8--10------8--10------8--10--8------8--10--10---8--10------8--10------8--10--8------8--10--|

D|----------------------------------10----------------------------------------------10---------|

A|---------------------------------------------------------------------------------------------|

E|---------------------------------------------------------------------------------------------|

 

e|--------------------------------------------------------------|

B|--9--8------9--8----------------------------------------------|

G|--------8---------8------8-h-10--8---8--8---------------------|

D|---------------------10--------------------10------8--10--10--|

A|-----------------------------------------------11-------------|

E|--------------------------------------------------------------|

 

e|---------------------------------------------------------------------------------------------|

B|---------9----------9------------------------------------9----------9------------------------|

G|--8--10------8--10------8--10--8------8--10--10---8--10------8--10------8--10--8------8--10--|

D|----------------------------------10----------------------------------------------10---------|

A|---------------------------------------------------------------------------------------------|

E|---------------------------------------------------------------------------------------------|

 

e|----------------------------------------------------------------------------------------------------------|

B|--9--8-----9--8-------------------------------------------------------------------------------------------|

G|--------8--------8------8-h-10--8--8--8-------------------------------------------------------------------|

D|--------------------10--------------------10------8--10--10----10------8--8------8--8--10--8-h-10-p-8-----|

A|----------------------------------------------11-------------------11--------11------------------------11-|

E|----------------------------------------------------------------------------------------------------------|

©2015 by Fefe - Tron544

Sigueme en:

  • YouTube - White Circle
  • Facebook - White Circle
  • Instagram - White Circle
  • Twitter - White Circle
This site was designed with the
.com
website builder. Create your website today.
Start Now