GOHAN WA OKAZU

K-ON!!

CHORDS ~ CLICK HERE TO VIEW THEM!

 

* You need the software called GUITAR PRO 5

       ~> DOWNLOAD IT HERE <~

Gohan wa Okazu - Tron544
00:00 / 00:00
DONATE%20BUTTON%20(EN)_edited.png

TABS ~ By Fefe (Tron544)

 

Verse/Estrofa:

 

e|----------------------------------|--------------------------------------|

B|----------------------------------|----------------------------------10--|

G|--11--9--11--------11--9--11------|--9--9--9----------------------9------|

D|-------------12---------------12--|-----------12--11--11------11---------|

A|----------------------------------|-----------------------12-------------|

E|----------------------------------|--------------------------------------|

 

e|----------------------------------|--------------------------------------|

B|----------------------------------|----------------------------------10--|

G|--11--9--11--------11--9--11------|--9--9--9----------------------9------|

D|-------------12---------------12--|-----------12--11--11------11---------|

A|----------------------------------|-----------------------12-------------|

E|----------------------------------|--------------------------------------|

 

e|-----------------------------------|-------------------------------------|

B|------12-----------------------10--|-------------------------------------|

G|--12------------9--11--12--11------|----------9--11--9--9--9----9--9--9--|

D|------------12---------------------|--11--12-----------------------------|

A|-----------------------------------|-------------------------------------|

E|-----------------------------------|-------------------------------------|

 

e|----------------------|--------------------------------|

B|----------------------|------------------------10--10--|

G|-------------11----9--|--9--9--11--11--12--12----------|

D|--9--11--12-----------|--------------------------------|

A|----------------------|--------------------------------|

E|----------------------|--------------------------------|

 

 

Pre-Chorus/Pre-Estribillo:

 

e|------------------9--9--9--9--10--------------|-------------------------------------------------|

B|--12--12--12--12------------------10------10--|------------------10---------------------12--10--|

G|--------------------------------------11------|--12--12--12--12------12--11--9--11--12----------|

D|----------------------------------------------|-------------------------------------------------|

A|----------------------------------------------|-------------------------------------------------|

E|----------------------------------------------|-------------------------------------------------|

 

e|--------------9--9--9--10--------------|

B|--12--12--12---------------10------10--|

G|-------------------------------11------|

D|---------------------------------------|

A|---------------------------------------|

E|---------------------------------------|

 

e|------------------------------------10--10--10--10--10-----10--10--10--10--10-----10--10--|

B|------------------10----------------------------------------------------------------------|

G|--12--12--12--12------12--11--9--7----------------------7----------------------7----------|

D|------------------------------------------------------------------------------------------|

A|------------------------------------------------------------------------------------------|

E|------------------------------------------------------------------------------------------|

Chorus/Estribillo:

 

e|--12--12--12--12---14--12--10--|--12--12--12--12---14--12--10--|

B|-------------------------------|-------------------------------|

G|-------------------------------|-------------------------------|

D|-------------------------------|-------------------------------|

A|-------------------------------|-------------------------------|

E|-------------------------------|-------------------------------|

 

 

Pre-Chorus/Pre-Estribillo:

 

e|------------------9--9--9--9--10--------------|-------------------------------------------------|

B|--12--12--12--12------------------10------10--|------------------10---------------------12--10--|

G|--------------------------------------11------|--12--12--12--12------12--11--9--11--12----------|

D|----------------------------------------------|-------------------------------------------------|

A|----------------------------------------------|-------------------------------------------------|

E|----------------------------------------------|-------------------------------------------------|

 

e|--------------9--9--9--10--------------|

B|--12--12--12---------------10------10--|

G|-------------------------------11------|

D|---------------------------------------|

A|---------------------------------------|

E|---------------------------------------|

 

e|------------------------------------10--10--10--10--10-----10--10--10--10--10-----10--10--|

B|------------------10----------------------------------------------------------------------|

G|--12--12--12--12------12--11--9--7----------------------7----------------------7----------|

D|------------------------------------------------------------------------------------------|

A|------------------------------------------------------------------------------------------|

E|------------------------------------------------------------------------------------------|

 

 

Chorus/Estribillo:

 

e|--12--12--12--12---14--12--10--|--12--12--12--12---14--12--10--|

B|-------------------------------|-------------------------------|

G|-------------------------------|-------------------------------|

D|-------------------------------|-------------------------------|

A|-------------------------------|-------------------------------|

E|-------------------------------|-------------------------------|

 

e|--12--12--12--12---14--12--10--|--12--12--12--12---14--12--10--|

B|-------------------------------|-------------------------------|

G|-------------------------------|-------------------------------|

D|-------------------------------|-------------------------------|

A|-------------------------------|-------------------------------|

E|-------------------------------|-------------------------------|

©2015 by Fefe - Tron544

Sigueme en:

  • YouTube - White Circle
  • Facebook - White Circle
  • Instagram - White Circle
  • Twitter - White Circle
This site was designed with the
.com
website builder. Create your website today.
Start Now