GOD KNOWS...

THE MELANCHOLY OF HARUHI SUZUMIYA

CHORDS ~ By Fefe (Tron544)

 

Chords used/Acordes utilizados:

A: x.0.2.2.2.0  -  A#: 6.8.8.7.6.6  -  A#m: 6.8.8.6.6
B: x.2.4.4.4.2
C#: x.4.6.6.6.4  -  C#sus4: x.4.6.6.7.4  -  C#m: x.4.6.6.5.4
D#m: x.6.8.8.7.6
E: 0.2.2.1.0.0
F#: 2.4.4.3.2.2  -  F#m: 2.4.4.2.2.2
G#: 4.6.6.5.4.4  -  G#m: 4.6.6.4.4.4

| A | B | G#m | C#m |
| A | B | C#sus4 | C# |

 


C#m                 B
Kawaita kokoro de kakenukeru
A       B            E      D#m  G#
Gomen ne nani mo dekinakute
C#m                B
Itami wo wakachiau koto sae
A       B            E
Anata wa yurushite kurenai

 


A                     G#m
Muku ni ikiru tame ni furimukazu
  F#m          A
Senaka mukete satteshimau
       G#
ON THE LONELY RAIL

        A
Watashi tsuiteiku yo
 B            G#m          C#m
Donna tsurai sekai no yami no naka de sae
F#m    G#m       C#m  Bm  E
Kitto anata wa kagayaite
      A
Koeru mirai no hate
 B             G#m          C#m
Yowasa yue ni tamashii kowasarenu you ni
F#m      G#m
MY WAY kasanaru yo
A  B          C#sus4 C# 
Ima futari ni GOD... BLESS...


 A             G#m
Anata ga ite watashi ga ite
             F#m  G#m     C#m   Bm  E
Hoka no hito wa kieteshimatta
 A            G#m                    F#m    A
Awai yume no utsukushisa wo egakinagara
     G#
Kizuato nazoru

 


G#        G# A#           B
   Dakara       Watashi tsuiteiku yo
 C#           A#m          D#m
Donna tsurai sekai no yami no naka de sae
 G#m   A#m       D#m  C#m  F#
Kitto anata wa kagayaite
       B
Koeru mirai no hate
 C#            A#m         D#m
Yowasa yue ni tamashii kowasarenu you ni
G#m      A#m
MY WAY kasanaru yo
B  C#         D#m
Ima futari ni GOD BLESS...


| B | C# | A#m | D#m |
| B | C# | D#sus4 | D# |

TABS ~ CLICK HERE TO VIEW THEM!

 

* You need the software called GUITAR PRO 5

       ~> DOWNLOAD IT HERE <~

God Knows... - Tron544
00:00 / 00:00
DONATE%20BUTTON%20(EN)_edited.png

TABS ~ By Fefe (Tron544)

 

Verse/Estrofa:

 

e|--------------------------------------------|-------------------------------------------|

B|--------------------------------------------|-------------------------------------9--9--|

G|--9--9--8--9----9--11--9--8--9--8--8--9--8--|--9--9--8--9----9--11--9--11--9--11--------|

D|--------------------------------------------|-------------------------------------------|

A|--------------------------------------------|-------------------------------------------|

E|--------------------------------------------|-------------------------------------------|

 

 

Pre-Chorus/Pre-Estribillo:

 

e|--------------------------------------------------------|

B|--9---------------12--11--9--11--9------9---------------|

G|-----11-----------------------------11-----11-----------|

D|---------11---11-------------------------------9--9--9--|

A|--------------------------------------------------------|

E|--------------------------------------------------------|

 

e|---------------------------------------------------------|

B|-----------------------------------------------9--10--9--|

G|--9--9--8------8--9-----9--9--8--9--11--9--11------------|

D|-----------11--------------------------------------------|

A|---------------------------------------------------------|

E|---------------------------------------------------------|

 

 

First Chorus/Primer Estribillo:

 

e|--------------------------------------------------------|------------------------9-----------------------|

B|---------9---9-----------------9---9-----------------9--|--12--9--12--12--9--12-----9------9-------------|

G|--9--11---------11--11--9--11---------11--11--9--11-----|------------------------------11-----11--9------|

D|--------------------------------------------------------|--------------------------------------------11--|

A|--------------------------------------------------------|------------------------------------------------|

E|--------------------------------------------------------|------------------------------------------------|

 

e|---------------------------------------|

B|--9--9------9--12-------------------9--|

G|--------11---------11--11----9--11-----|

D|---------------------------------------|

A|---------------------------------------|

E|---------------------------------------|

 

e|--------------------------------------------------------|------------------------9-----------------------|

B|---------9---9-----------------9---9-----------------9--|--12--9--12--12--9--12-----9------9-------------|

G|--9--11---------11--11--9--11---------11--11--9--11-----|------------------------------11-----11--9------|

D|--------------------------------------------------------|--------------------------------------------11--|

A|--------------------------------------------------------|------------------------------------------------|

E|--------------------------------------------------------|------------------------------------------------|

 

e|------------------------------------------------------|

B|--9--9------9--12-----------------9-------------------|

G|--------11---------11--11--9---------11--9--8--8------|

D|--------------------------------------------------11--|

A|------------------------------------------------------|

E|------------------------------------------------------|

 

 

Bridge/Puente:

 

e|-----------------------|---------------------------------------------|----------------------------|

B|----------------9------|----------------9--12--10--9-----------------|----------------------------|

G|-----------------------|------------------------------11--9--11------|--9--8--9--11---8--8--9--9--|

D|--9--11--9--11-----11--|--9--11--9--11---------------------------11--|----------------------------|

A|-----------------------|---------------------------------------------|----------------------------|

E|-----------------------|---------------------------------------------|----------------------------|

 

e|-----------------------|------------------------------------------9--|--9--9--9--9---8--9--8--|

B|----------------9------|-----------------9--12--10--9----------------|------------------------|

G|-----------------------|-------------------------------11--9--11-----|------------------------|

D|--9--11--9--11-----11--|--11--11--9--11------------------------------|------------------------|

A|-----------------------|---------------------------------------------|------------------------|

E|-----------------------|---------------------------------------------|------------------------|

 

 

Second Chorus/Segundo Estribillo:

 

e|------------|----------------------------------------------------------------|--------------------------|

B|---------9--|----------11---11------------------11---11------------------11--|--14--11--14--14--11--14--|

G|--9--11-----|--11--13-----------13--13--11--13-----------13--13--11--13------|--------------------------|

D|------------|----------------------------------------------------------------|--------------------------|

A|------------|----------------------------------------------------------------|--------------------------|

E|------------|----------------------------------------------------------------|--------------------------|

 

e|--11--------------------------------------------------------------------|

B|------11------11--------------11--11------11--14--------------------11--|

G|----------13------13--11--------------13----------13--13----11--13------|

D|--------------------------13--------------------------------------------|

A|------------------------------------------------------------------------|

E|------------------------------------------------------------------------|

 

e|----------------------------------------------------------------|--------------------------|

B|----------11---11------------------11---11------------------11--|--14--11--14--14--11--14--|

G|--11--13-----------13--13--11--13-----------13--13--11--13------|--------------------------|

D|----------------------------------------------------------------|--------------------------|

A|----------------------------------------------------------------|--------------------------|

E|----------------------------------------------------------------|--------------------------|

 

e|--11--------------------------------------------------------------------------------------|

B|------11------11--------------11--11------11--14------------------11----------------------|

G|----------13------13--11--------------13----------13--13--11----------13--11--10--10------|

D|--------------------------13----------------------------------------------------------13--|

A|------------------------------------------------------------------------------------------|

E|------------------------------------------------------------------------------------------|

©2015 by Fefe - Tron544

Sigueme en:

  • YouTube - White Circle
  • Facebook - White Circle
  • Instagram - White Circle
  • Twitter - White Circle
This site was designed with the
.com
website builder. Create your website today.
Start Now