~ GO!!! ~

TABLATURAS ~ By Fefe - Tron544

 

Intro:

 

GUITAR 1:

 

e|------------------------------------------------------|

B|------------------------------------------------------|

G|--#--#--4------#--#--4------#--#--4----4--x--x--x--4--|

D|--#--#--4------#--#--4------#--#--4----4--x--x--x--4--|

A|--#--#--2------#--#--2------#--#--2----2--x--x--x--2--|

E|------------------------------------------------------|

 

GUITAR 1:

 

e|-----------------------------------------------------------------------------|

B|-----------------------------------------------------------------------------|

G|--4--4--4--4--4--4-----------------------------------------------------------|

D|--4--4--4--4--4--4---2--2--2--2--2--2---4--4--4--4--4--4---2--2--2--2--2--2--|

A|--2--2--2--2--2--2---2--2--2--2--2--2---4--4--4--4--4--4---2--2--2--2--2--2--|

E|---------------------0--0--0--0--0--0---2--2--2--2--2--2---0--0--0--0--0--0--|

 

GUITAR 2:

 

e|---------|-----------------------------------------------|

B|---------|-----------------------------------------------|

G|---------|--8------------------------------8-------------|

D|--9--11--|-----9--6--6--9---11--9--11--11-----11--9--11--|

A|---------|-----------------------------------------------|

E|---------|-----------------------------------------------|

 

GUITAR 1:

 

e|----------------------------------------------------------------------------|

B|----------------------------------------------------------------------------|

G|--4--4--4--4--4--4----------------------------------------------------------|

D|--4--4--4--4--4--4---2--2--2--2--2--2---4--x--x--x--x--4--x--x--4--x--x--4--|

A|--2--2--2--2--2--2---2--2--2--2--2--2---4--x--x--x--x--4--x--x--4--x--x--4--|

E|---------------------0--0--0--0--0--0---2--x--x--x--x--2--x--x--2--x--x--2--|

 

GUITAR 2:

 

e|-----------------------------------------------|

B|-----------------------------------------------|

G|--8------------------------------8-------------|

D|-----9--6--6--9---11--9--11--11-----11--9--11--|

A|-----------------------------------------------|

E|-----------------------------------------------|

 

GUITAR 1:

 

e|-----------------------------------------------------------------------------|

B|-----------------------------------------------------------------------------|

G|--4--4--4--4--4--4-----------------------------------------------------------|

D|--4--4--4--4--4--4---2--2--2--2--2--2---4--4--4--4--4--4---2--2--2--2--2--2--|

A|--2--2--2--2--2--2---2--2--2--2--2--2---4--4--4--4--4--4---2--2--2--2--2--2--|

E|---------------------0--0--0--0--0--0---2--2--2--2--2--2---0--0--0--0--0--0--|

 

GUITAR 2:

 

e|-----------------------------------------------|

B|-----------------------------------------------|

G|--8------------------------------8-------------|

D|-----9--6--6--9---11--9--11--11-----11--9--11--|

A|-----------------------------------------------|

E|-----------------------------------------------|

 

GUITAR 1:

 

e|-------------------------------------------------------------|

B|-------------------------------------------------------------|

G|--4--4--4--4--4--4-------------------------------------------|

D|--4--4--4--4--4--4---2--2--2--2--2--2---4--x--x--x--x--x--4--|

A|--2--2--2--2--2--2---2--2--2--2--2--2---4--x--x--x--x--x--4--|

E|---------------------0--0--0--0--0--0---2--x--x--x--x--x--2--|

 

GUITAR 2:

 

e|---------------------------------------|

B|---------------------------------------|

G|--8--11--11--9--8--9--8----------------|

D|-------------------------11--9--11--9--|

A|---------------------------------------|

E|---------------------------------------|

 

GUITAR 1:

 

e|--------------------------------------------------------------------|

B|--------------------------------------------------------------------|

G|--4--4--#--#--#--#--4--4--#--#--#--#--4--4--#--#--#--#--4--4--#--5--|

D|--4--4--#--#--#--#--4--4--#--#--#--#--4--4--#--#--#--#--4--4--#--5--|

A|--2--2--#--#--#--#--2--2--#--#--#--#--2--2--#--#--#--#--2--2--#--3--|

E|--------------------------------------------------------------------|

 

e|------------------------------------------------------12--11------|

B|----------------------------------------------12--------------14--|

G|--2--2--#--#--#--#--2--2--#--#--#--#--2---11------11--------------|

D|--2--2--#--#--#--#--2--2--#--#--#--#--2---------------------------|

A|--2--2--#--#--#--#--2--2--#--#--#--#--2---------------------------|

E|------------------------------------------------------------------|

 

 

Verse/Estrofa:

 

GUITAR 1:

 

e|--7--6--7---7------7--6--7----------7--6--7---7--9--7--6--7--|

B|--7--7--7---7--5---7--7--7---5--7---7--7--7---7--7--7--7--7--|

G|---------------4-------------4--6----------------------------|

D|-------------------------------------------------------------|

A|-------------------------------------------------------------|

E|-------------------------------------------------------------|

 

GUITAR 2:

 

e|--------------------------------------------------------------------------------------------|

B|--------------------------------------------------------------------------------------------|

G|--8--8----------------------------------------------------------------------8---------------|

D|--------11--11--9--9--11--9--9--8--9--9--8--9---11--11--11--11--11--11--11-----11--9--8--9--|

A|--------------------------------------------------------------------------------------------|

E|--------------------------------------------------------------------------------------------|

 

GUITAR 1:

 

e|--7--6--7---7------7--6--7----------7--6--7---7--9--7--6--7--|

B|--7--7--7---7--5---7--7--7---5--7---7--7--7---7--7--7--7--7--|

G|---------------4-------------4--6----------------------------|

D|-------------------------------------------------------------|

A|-------------------------------------------------------------|

E|-------------------------------------------------------------|

 

GUITAR 2:

 

e|------------------------------------------------------------------------|

B|------------------------------------------------------------------------|

G|------------------------------------------------------------------------|

D|--9--9--8--9--9---9--9--9--11--9--8--9---9--9--9--9--9--11--9--9--8--9--|

A|------------------------------------------------------------------------|

E|------------------------------------------------------------------------|

 

 

Pre-Chorus/Pre-Estribillo:

 

GUITAR 1:

 

e|------------------------------------|

B|---------5------7-------------------|

G|--4------4------6------4---4--4--4--|

D|--4------2------4------4---4--4--4--|

A|--2--------------------2---2--2--2--|

E|------------------------------------|

 

GUITAR 2:

 

e|-----------------------------------------------------------------------------------------|

B|---------9------------------------------------------------------------------------9------|

G|--8--11-----11--8------------------------8--------------------------------8--11------11--|

D|-------------------9--9--9--8--9--8--9------11--11--11--9--11--11--9--11-----------------|

A|-----------------------------------------------------------------------------------------|

E|-----------------------------------------------------------------------------------------|

 

GUITAR 1:

 

e|--------------------------------------|

B|---------5------7---------------------|

G|--4------4------6------4--x--x--x--4--|

D|--4------2------4------4--x--x--x--4--|

A|--2--------------------2--x--x--x--2--|

E|--------------------------------------|

 

GUITAR 2:

 

e|-------------------------------------------------------------|

B|---------9---------------------------------------------------|

G|--8--11-----11--8------------------------8-------------------|

D|-------------------9--9--9--8--9--8--9------11--8--11--8--9--|

A|-------------------------------------------------------------|

E|-------------------------------------------------------------|

 

 

Chorus/Estribillo:

 

GUITAR 1:

 

e|-----------------------------------------------------------------------------|

B|-----------------------------------------------------------------------------|

G|--4--4--4--4--4--4-----------------------------------------------------------|

D|--4--4--4--4--4--4---2--2--2--2--2--2---4--4--4--4--4--4---2--2--2--2--2--2--|

A|--2--2--2--2--2--2---2--2--2--2--2--2---4--4--4--4--4--4---2--2--2--2--2--2--|

E|---------------------0--0--0--0--0--0---2--2--2--2--2--2---0--0--0--0--0--0--|

 

GUITAR 2:

 

e|---------|-----------------------------------------------|

B|---------|-----------------------------------------------|

G|---------|--8------------------------------8-------------|

D|--9--11--|-----9--6--6--9---11--9--11--11-----11--9--11--|

A|---------|-----------------------------------------------|

E|---------|-----------------------------------------------|

 

GUITAR 1:

 

e|----------------------------------------------------------------------------|

B|----------------------------------------------------------------------------|

G|--4--4--4--4--4--4----------------------------------------------------------|

D|--4--4--4--4--4--4---2--2--2--2--2--2---4--x--x--x--x--4--x--x--4--x--x--4--|

A|--2--2--2--2--2--2---2--2--2--2--2--2---4--x--x--x--x--4--x--x--4--x--x--4--|

E|---------------------0--0--0--0--0--0---2--x--x--x--x--2--x--x--2--x--x--2--|

 

GUITAR 2:

 

e|-----------------------------------------------|

B|-----------------------------------------------|

G|--8------------------------------8-------------|

D|-----9--6--6--9---11--9--11--11-----11--9--11--|

A|-----------------------------------------------|

E|-----------------------------------------------|

 

GUITAR 1:

 

e|-----------------------------------------------------------------------------|

B|-----------------------------------------------------------------------------|

G|--4--4--4--4--4--4-----------------------------------------------------------|

D|--4--4--4--4--4--4---2--2--2--2--2--2---4--4--4--4--4--4---2--2--2--2--2--2--|

A|--2--2--2--2--2--2---2--2--2--2--2--2---4--4--4--4--4--4---2--2--2--2--2--2--|

E|---------------------0--0--0--0--0--0---2--2--2--2--2--2---0--0--0--0--0--0--|

 

GUITAR 2:

 

e|-----------------------------------------------|

B|-----------------------------------------------|

G|--8------------------------------8-------------|

D|-----9--6--6--9---11--9--11--11-----11--9--11--|

A|-----------------------------------------------|

E|-----------------------------------------------|

 

GUITAR 1:

 

e|-------------------------------------------------------------|

B|-------------------------------------------------------------|

G|--4--4--4--4--4--4-------------------------------------------|

D|--4--4--4--4--4--4---2--2--2--2--2--2---4--x--x--x--x--x--4--|

A|--2--2--2--2--2--2---2--2--2--2--2--2---4--x--x--x--x--x--4--|

E|---------------------0--0--0--0--0--0---2--x--x--x--x--x--2--|

 

GUITAR 2:

 

e|---------------------------------------|

B|---------------------------------------|

G|--8--11--11--9--8--9--8----------------|

D|-------------------------11--9--11--9--|

A|---------------------------------------|

E|---------------------------------------|

 

GUITAR 1:

 

e|--------------------------------------------------------------------|

B|--------------------------------------------------------------------|

G|--4--4--#--#--#--#--4--4--#--#--#--#--4--4--#--#--#--#--4--4--#--5--|

D|--4--4--#--#--#--#--4--4--#--#--#--#--4--4--#--#--#--#--4--4--#--5--|

A|--2--2--#--#--#--#--2--2--#--#--#--#--2--2--#--#--#--#--2--2--#--3--|

E|--------------------------------------------------------------------|

 

e|--------------------------------------------------------------------|

B|--------------------------------------------------------------------|

G|--4--4--#--#--#--#--4--4--#--#--#--#--4--4--#--#--#--#--2--2--#--3--|

D|--4--4--#--#--#--#--4--4--#--#--#--#--4--4--#--#--#--#--2--2--#--3--|

A|--2--2--#--#--#--#--2--2--#--#--#--#--2--2--#--#--#--#--0--0--#--1--|

E|--------------------------------------------------------------------|

 

e|--------------------------------------------------------------------|

B|--------------------------------------------------------------------|

G|--4--4--#--#--#--#--4--4--#--#--#--#--4--4--#--#--#--#--4--4--#--5--|

D|--4--4--#--#--#--#--4--4--#--#--#--#--4--4--#--#--#--#--4--4--#--5--|

A|--2--2--#--#--#--#--2--2--#--#--#--#--2--2--#--#--#--#--2--2--#--3--|

E|--------------------------------------------------------------------|

 

e|-------------------------------------------------------------------------------------12--11---------|

B|-----------------------------------------------------------------------------12--------------14-----|

G|--4--4--#--#--#--#--4--4--#--#--#--#--4--4--#--#--#--#--2--2--#--3---4---11------11-----------------|

D|--4--4--#--#--#--#--4--4--#--#--#--#--4--4--#--#--#--#--2--2--#--3---4---------------------------9--|

A|--2--2--#--#--#--#--2--2--#--#--#--#--2--2--#--#--#--#--0--0--#--1---2---------------------------9--|

E|-------------------------------------------------------------------------------------------------7--|

 

 

GO!!! - Tron544
00:00 / 00:00

©2019 by Fefe - Tron544

Sigueme en:

  • YouTube - White Circle
  • Facebook - White Circle
  • Instagram - White Circle
  • Twitter - White Circle
This site was designed with the
.com
website builder. Create your website today.
Start Now