GO GO POWER RANGERS

POWER RANGERS: MIGHTY MORPHIN

TABS ~ By Fefe (Tron544)

 

Intro:

 

e|-------------------------------------|

B|-------------------------------------|

G|--9--x--9--x--x--9--x--9--x--7-/-10--|

D|--9--x--9--x--x--9--x--9--x--7-/-10--|

A|--7--x--7--x--x--7--x--7--x--9-/-8---|

E|-------------------------------------|

 

e|---------------------------------------|

B|---------------------------------------|

G|--9--x--9--x--x--9----9--9--9--9-/-10--|

D|--9--x--9--x--x--9----9--9--9--9-/-10--|

A|--7--x--7--x--x--7----7--7--7--7-/-8---|

E|---------------------------------------|

 

  /~~~~~~~~~~~~( REPEAT x2 / REPITE x2 )~~~~~~~~~~~~~\

e|----------------------------------------------------|

B|----------------------------------------------------|

G|--x--x--9--x--x--9--x--x--9--x--x--9--x--x--9-/-10--|

D|--x--x--9--x--x--9--x--x--9--x--x--9--x--x--9-/-10--|

A|--x--x--7--x--x--7--x--x--7--x--x--7--x--x--7-/-8---|

E|----------------------------------------------------|

 

GUITAR 1:

 

e|----------------------------------------------------------|

B|----------------------------------------------------------|

G|--t-12-p-9-p-5--t-12-p-9-p-5--t-12-p-9-p-5--t-12-p-9-p-5--|

D|----------------------------------------------------------|

A|----------------------------------------------------------|

E|----------------------------------------------------------|

 

GUITAR 2:

 

e|-----|

B|-----|

G|--5--|

D|--5--|

A|--3--|

E|-----|

 

GUITAR 1:

 

e|--------------------------------------------------------------|

B|--------------------------------------------------------------|

G|--t-14-p-11-p-7--t-14-p-11-p-7--t-14-p-11-p-7--t-14-p-11-p-7--|

D|--------------------------------------------------------------|

A|--------------------------------------------------------------|

E|--------------------------------------------------------------|

 

GUITAR 2:

 

e|-----|

B|-----|

G|--7--|

D|--7--|

A|--5--|

E|-----|

 

GUITAR 1:

 

e|----------------------------------------------------------|

B|--t-12-p-7-p-4--t-12-p-7-p-4--t-12-p-7-p-4--t-12-p-7-p-4--|

G|----------------------------------------------------------|

D|----------------------------------------------------------|

A|----------------------------------------------------------|

E|----------------------------------------------------------|

 

GUITAR 2:

 

e|-----|

B|-----|

G|--4--|

D|--4--|

A|--2--|

E|-----|

 

GUITAR 1:

 

e|----------------------------------------------------------|

B|--t-12-p-8-p-5--t-12-p-8-p-5--t-12-p-8-p-5--t-12-p-8-p-5--|

G|----------------------------------------------------------|

D|----------------------------------------------------------|

A|----------------------------------------------------------|

E|----------------------------------------------------------|

 

GUITAR 2:

 

e|----------|

B|----------|

G|--9----7--|

D|--9----7--|

A|--7----5--|

E|----------|

 

GUITAR 1:

 

e|----------------------------------------------------------|

B|--t-13-p-8-p-5--t-13-p-8-p-5--t-13-p-8-p-5--t-13-p-8-p-5--|

G|----------------------------------------------------------|

D|----------------------------------------------------------|

A|----------------------------------------------------------|

E|----------------------------------------------------------|

 

GUITAR 2:

 

e|-----|

B|-----|

G|--5--|

D|--5--|

A|--3--|

E|-----|

 

GUITAR 1:

 

e|----------------------------------------------------------|------------------------|

B|--t-13-p-8-p-5--t-13-p-8-p-5--t-13-p-8-p-5--t-13-p-8-p-5--|--12------12--10--8--7--|

G|----------------------------------------------------------|------------------------|

D|----------------------------------------------------------|------------------------|

A|----------------------------------------------------------|------------------------|

E|----------------------------------------------------------|------------------------|

 

GUITAR 2:

 

e|-----|

B|-----|

G|--4--|

D|--4--|

A|--2--|

E|-----|

Go Go Power Rangers - Tron544
00:00 / 00:00
DONATE%20BUTTON%20(EN)_edited.png

Chorus/Estribillo:

 

GUITAR 1:

 

e|--------------------------------------|-----------------------------------------|

B|--------------------------------------|-----------------------------------------|

G|--x--x--9--x--x--9--x--x--9--x--x--9--|--x--x--5--x--x--5--x--x--x--7--x--x--7--|

D|--x--x--9--x--x--9--x--x--9--x--x--9--|--x--x--5--x--x--5--x--x--x--7--x--x--7--|

A|--x--x--7--x--x--7--x--x--7--x--x--7--|--x--x--3--x--x--3--x--x--x--5--x--x--5--|

E|--------------------------------------|-----------------------------------------|

 

GUITAR 2:

 

e|------19--17----------|------19--17----------|

B|--17----------19--20--|--17----------20--19--|

G|----------------------|----------------------|

D|----------------------|----------------------|

A|----------------------|----------------------|

E|----------------------|----------------------|

 

GUITAR 3:

 

e|---------------------|

B|---------------------|

G|--9--9--7--9--12--9--|

D|---------------------|

A|---------------------|

E|---------------------|

 

GUITAR 1:

 

e|--------------------------------------|-----------------------------------------|

B|--------------------------------------|-----------------------------------------|

G|--x--x--9--x--x--9--x--x--9--x--x--9--|--x--x--5--x--x--5--x--x--x--7--x--x--7--|

D|--x--x--9--x--x--9--x--x--9--x--x--9--|--x--x--5--x--x--5--x--x--x--7--x--x--7--|

A|--x--x--7--x--x--7--x--x--7--x--x--7--|--x--x--3--x--x--3--x--x--x--5--x--x--5--|

E|--------------------------------------|-----------------------------------------|

 

GUITAR 2:

 

e|------19--17----------|------19--17----------|

B|--17----------19--20--|--17----------20--19--|

G|----------------------|----------------------|

D|----------------------|----------------------|

A|----------------------|----------------------|

E|----------------------|----------------------|

 

GUITAR 3:

 

e|---------------------|

B|---------------------|

G|--9--9--7--9--12--9--|

D|---------------------|

A|---------------------|

E|---------------------|

 

 

Bridge/Puente:

 

GUITAR 1:

 

e|----------------------------------------------------|---------------------------------------------------|

B|----------------------------------------------------|---------------------------------------------------|

G|--10--10--10--10----10--10--10--10--10--10--10--10--|--10--10--10--10----10--10--10--10--10--10--10--9--|

D|--10--10--10--10----10--10--10--10--10--10--10--10--|--10--10--10--10----10--10--10--10--10--10--10--9--|

A|--8---8---8---8-----8---8---8---8---8---8---8---8---|--8---8---8---8-----8---8---8---8---8---8---8---7--|

E|----------------------------------------------------|---------------------------------------------------|

 

GUITAR 2:

 

e|--------------------------|-----------------------------------------|

B|--------------------------|-----------------------------------------|

G|--10--10--10--10--10--10--|--10--10--10--10--10--10--10--12--10--9--|

D|--------------------------|-----------------------------------------|

A|--------------------------|-----------------------------------------|

E|--------------------------|-----------------------------------------|

 

GUITAR 1:

 

e|------------------|------------------------------|-------------------------------------|

B|------------------|------------------------------|-------------------------------------|

G|--7-/-9----7-/-9--|--7-/-9--7-/-9--7-/-9--7-/-9--|--9-/-7--10--11--12--13--14--15--16--|

D|--7-/-9----7-/-9--|--7-/-9--7-/-9--7-/-9--7-/-9--|--9-/-7--10--11--12--13--14--15--16--|

A|--5-/-7----5-/-7--|--5-/-7--5-/-7--5-/-7--5-/-7--|--5-/-7--8---9---10--11--12--13--14--|

E|------------------|------------------------------|-------------------------------------|

 

 

Chorus/Estribillo:

 

GUITAR 1:

 

e|--------------------------------------|-----------------------------------------|

B|--------------------------------------|-----------------------------------------|

G|--x--x--9--x--x--9--x--x--9--x--x--9--|--x--x--5--x--x--5--x--x--x--7--x--x--7--|

D|--x--x--9--x--x--9--x--x--9--x--x--9--|--x--x--5--x--x--5--x--x--x--7--x--x--7--|

A|--x--x--7--x--x--7--x--x--7--x--x--7--|--x--x--3--x--x--3--x--x--x--5--x--x--5--|

E|--------------------------------------|-----------------------------------------|

 

GUITAR 2:

 

e|------19--17----------|------19--17----------|

B|--17----------19--20--|--17----------20--19--|

G|----------------------|----------------------|

D|----------------------|----------------------|

A|----------------------|----------------------|

E|----------------------|----------------------|

 

GUITAR 3:

 

e|---------------------|

B|---------------------|

G|--9--9--7--9--12--9--|

D|---------------------|

A|---------------------|

E|---------------------|

 

GUITAR 1:

 

e|--------------------------------------|-----------------------------------------|

B|--------------------------------------|-----------------------------------------|

G|--x--x--9--x--x--9--x--x--9--x--x--9--|--x--x--5--x--x--5--x--x--x--7--x--x--7--|

D|--x--x--9--x--x--9--x--x--9--x--x--9--|--x--x--5--x--x--5--x--x--x--7--x--x--7--|

A|--x--x--7--x--x--7--x--x--7--x--x--7--|--x--x--3--x--x--3--x--x--x--5--x--x--5--|

E|--------------------------------------|-----------------------------------------|

 

GUITAR 2:

 

e|------19--17----------|------19--17----------|

B|--17----------19--20--|--17----------20--19--|

G|----------------------|----------------------|

D|----------------------|----------------------|

A|----------------------|----------------------|

E|----------------------|----------------------|

 

GUITAR 3:

 

e|---------------------|

B|---------------------|

G|--9--9--7--9--12--9--|

D|---------------------|

A|---------------------|

E|---------------------|

 

 

Bridge/Puente:

 

GUITAR 1:

 

e|---------------------------------------------------|-----------------------------------------------------|

B|---------------------------------------------------|-----------------------------------------------------|

G|--10--10--10--10---10--10--10--10--10--10--10--10--|--10--10--10--10---10--10--10--10--10--10--10--9--9--|

D|--10--10--10--10---10--10--10--10--10--10--10--10--|--10--10--10--10---10--10--10--10--10--10--10--9--9--|

A|--8---8---8---8----8---8---8---8---8---8---8---8---|--8---8---8---8----8---8---8---8---8---8---8---7--7--|

E|---------------------------------------------------|-----------------------------------------------------|

 

GUITAR 2:

 

e|--------------------------|--------------------------------------------|

B|--------------------------|--------------------------------------------|

G|--10--10--10--10--10--10--|--10--10--10--10--10--10--10--12--10--9--9--|

D|--------------------------|--------------------------------------------|

A|--------------------------|--------------------------------------------|

E|--------------------------|--------------------------------------------|

©2015 by Fefe - Tron544

Sigueme en:

  • YouTube - White Circle
  • Facebook - White Circle
  • Instagram - White Circle
  • Twitter - White Circle
This site was designed with the
.com
website builder. Create your website today.
Start Now