~ GO! GO! MANIAC ~

ACORDES ~ Click aquí para Verlos!

 

TABLATURAS ~ By Fefe - Tron544

 

First Chorus/Primer Estribillo:

 

e|---------|

B|------8--|

G|--10-----|

D|---------|

A|---------|

E|---------|

 

e|--------------11--------------11-------------------------------------------|

B|--9--8--9--8------9--8--9--8--------9--8--9--9---------9---------8--11--9--|

G|------------------------------------------------8--10-----8--10------------|

D|---------------------------------------------------------------------------|

A|---------------------------------------------------------------------------|

E|---------------------------------------------------------------------------|

 

e|---------------11--11--------------11--11--------------|

B|---------8--9----------9--8--9--8----------9--8--9--8--|

G|--8--10------------------------------------------------|

D|-------------------------------------------------------|

A|-------------------------------------------------------|

E|-------------------------------------------------------|

 

e|--12--12--------------14--14--------------------------11--10--9------------------------|

B|----------9--8--9--8----------9--8--9--8--9----9--12-------------12--9-----------------|

G|------------------------------------------------------------------------8--11--12--13--|

D|---------------------------------------------------------------------------------------|

A|---------------------------------------------------------------------------------------|

E|---------------------------------------------------------------------------------------|

 

 

Verse/Estrofa:

 

e|-------------------------------------------------------------|

B|------------10--10--10---9--9---9---------------9--9---9-----|

G|--8--9--11-------------------------11--11---11------------8--|

D|-------------------------------------------------------------|

A|-------------------------------------------------------------|

E|-------------------------------------------------------------|

 

e|--------------------------------------------------------------|

B|------------10--10--10---9--9---9---------------9--9---9--12--|

G|--8--9--11-------------------------11--11---11----------------|

D|--------------------------------------------------------------|

A|--------------------------------------------------------------|

E|--------------------------------------------------------------|

 

e|-------------------------------------------------------------|

B|------------10--10--10---9--9---9---------------9--9---9-----|

G|--8--9--11-------------------------11--11---11------------8--|

D|-------------------------------------------------------------|

A|-------------------------------------------------------------|

E|-------------------------------------------------------------|

 

e|------------------------------------------------------------------------14--12--10--|

B|------------10--10--10---9--9---9---------------9--9---9----10--11--12--------------|

G|--8--9--11-------------------------11--11---11--------------------------------------|

D|------------------------------------------------------------------------------------|

A|------------------------------------------------------------------------------------|

E|------------------------------------------------------------------------------------|

 

 

Pre-Chorus/Pre-Estribillo:

 

e|--------------------------11----------|--------------------------14--14------|

B|--12--10--12--10--12--10------12------|--12--10--12--10--12--10----------12--|

G|----------------------------------11--|--------------------------------------|

D|--------------------------------------|--------------------------------------|

A|--------------------------------------|--------------------------------------|

E|--------------------------------------|--------------------------------------|

 

e|--------------------------11----------|--------------------------------------9--11---------------|

B|--12--10--12--10--12--10------12------|--9--9---9--11--11---11--12--12---12---------11-----------|

G|----------------------------------11--|-------------------------------------------------8--8--8--|

D|--------------------------------------|----------------------------------------------------------|

A|--------------------------------------|----------------------------------------------------------|

E|--------------------------------------|----------------------------------------------------------|

 

e|---------9--11--11--------------11-------------|

B|--9--11-------------9--8--9--8--------------8--|

G|----------------------------------------10-----|

D|-----------------------------------------------|

A|-----------------------------------------------|

E|-----------------------------------------------|

 

 

Second Chorus/Segundo Estribillo:

 

e|--------------11--------------11-------------------------------------------|

B|--9--8--9--8------9--8--9--8--------9--8--9--9---------9---------8--11--9--|

G|------------------------------------------------8--10-----8--10------------|

D|---------------------------------------------------------------------------|

A|---------------------------------------------------------------------------|

E|---------------------------------------------------------------------------|

 

e|-----------------11--11--9--9--8--8--9--9--11-------|

B|---------8--9------------------------------------8--|

G|--8--10---------------------------------------------|

D|----------------------------------------------------|

A|----------------------------------------------------|

E|----------------------------------------------------|

 

e|--------------11--------------11-------------------------------------------|

B|--9--8--9--8------9--8--9--8--------9--8--9--9---------9---------8--11--9--|

G|------------------------------------------------8--10-----8--10------------|

D|---------------------------------------------------------------------------|

A|---------------------------------------------------------------------------|

E|---------------------------------------------------------------------------|

 

e|---------------11--11--------------11--11--------------|

B|---------8--9----------9--8--9--8----------9--8--9--8--|

G|--8--10------------------------------------------------|

D|-------------------------------------------------------|

A|-------------------------------------------------------|

E|-------------------------------------------------------|

 

e|--12--12--------------14--14--------------------------11--10--9------------------------|

B|----------9--8--9--8----------9--8--9--8--9----9--12-------------12--9-----------------|

G|------------------------------------------------------------------------8--11--12--13--|

D|---------------------------------------------------------------------------------------|

A|---------------------------------------------------------------------------------------|

E|---------------------------------------------------------------------------------------|

GO! GO! Maniac - Tron544
00:00 / 00:00

©2019 by Fefe - Tron544

Sigueme en:

  • YouTube - White Circle
  • Facebook - White Circle
  • Instagram - White Circle
  • Twitter - White Circle
This site was designed with the
.com
website builder. Create your website today.
Start Now