GHOST SWEEPER

GHOST SWEEPER MIKAMI

TABS ~ By Fefe (Tron544)

 

Intro: x2

 

e|------------------------------------|
B|--10--9-----8-\-7-------------------|
G|---------9----------9---------9--8--|
D|-----------------------10--7--------|
A|------------------------------------|
E|------------------------------------|

 


Verse/Estrofa:

 

e|---------------------------------------|
B|---------------------------------------|
G|--7--9--7------7-----------------------|
D|-----------10-----10--7--9--9-/-10--7--|
A|---------------------------------------|
E|---------------------------------------|

e|-------------------------------------|

B|------------------8--8---------------|

G|--7-h-9--9--9--9--------9--7--7-h-9--|

D|-------------------------------------|

A|-------------------------------------|

E|-------------------------------------|

 

e|-------------------------------------------------------------------------------------|
B|-----8--10-b--8--10-----------------------------------------------8------------------|
G|--9-------------------9--7--5--7-p-5--7-/-9-----------------7--9-----9--9--7---------|
D|----------------------------------------------7--9--10--10--------------------10--7--|
A|-------------------------------------------------------------------------------------|
E|-------------------------------------------------------------------------------------|

 

e|---------------------------------------------------------------------------|
B|--------------------------------------------------------8--8---------------|
G|--7--9--7------7------------------------7-h-9--9--9--9--------9--7--7-h-9--|
D|-----------10-----10--7--9--9-/-10--7--------------------------------------|
A|---------------------------------------------------------------------------|
E|---------------------------------------------------------------------------|

 

e|---------------------------------------------------------------------------------------|
B|-----8--10-b--8--10----------------------------------------------------8---------------|
G|--9-------------------9--7--5--7--5--7--5--7-/-9-----------------7--9-----9--7---------|
D|---------------------------------------------------7--9--10--10-----------------10--7--|
A|---------------------------------------------------------------------------------------|
E|---------------------------------------------------------------------------------------|

Ghost Sweeper - Tron544
00:00 / 00:00
DONATE%20BUTTON%20(EN)_edited.png

Pre-Chorus/Pre-Estribillo:

 

e|---------------------------------------------------------|
B|------------8--10-------------8--------------------------|
G|--9--9--10----------9--9--10------7-h-9--7--5--7--7-/-9--|
D|---------------------------------------------------------|
A|---------------------------------------------------------|
E|---------------------------------------------------------|

 

e|----------------------------------------------------------|
B|----------------------------------------------------------|
G|-----------------------------7--7--7--7--7--9--9-/-10--9--|
D|--7-h-9--9-/-10-\-9-p-7-----------------------------------|
A|----------------------------------------------------------|
E|----------------------------------------------------------|

 


Chorus/Estribillo:

 

e|--------------------------------------------------------------------|
B|-----8--8--10-----8--10---10--10--8-----8--10------8--10-----8--10--|
G|--9------------9---------------------9----------9---------9---------|
D|--------------------------------------------------------------------|
A|--------------------------------------------------------------------|
E|--------------------------------------------------------------------|

 

e|----------------------------------------------------7--------7----------7--7------|
B|-----8--8--10-----8--10---10--10--8-----8--10---10------10------9-------------10--|
G|--9------------9---------------------9-------------------------------9------------|
D|----------------------------------------------------------------------------------|
A|----------------------------------------------------------------------------------|
E|----------------------------------------------------------------------------------|

 


Outro:

 

e|-----------------------------------------------------------------------------|
B|--10--9-----8-\-7--------------------10--9-----8-\-7---------------------10--|
G|---------9----------9---------9--8----------9----------9---------9--8--------|
D|-----------------------10--7------------------------------10--7--------------|
A|-----------------------------------------------------------------------------|
E|-----------------------------------------------------------------------------|

©2015 by Fefe - Tron544

Sigueme en:

  • YouTube - White Circle
  • Facebook - White Circle
  • Instagram - White Circle
  • Twitter - White Circle
This site was designed with the
.com
website builder. Create your website today.
Start Now