~ GET ALONG ~

TABLATURAS ~ By Fefe - Tron544

 

Verse/Estrofa:

 

GUITAR 1:

 

e|-----------------------|
B|-----------------------|
G|--------------------4--|
D|--6--x--x--6--x--6--4--|
A|--6--x--x--6--x--6--2--|
E|--4--x--x--4--x--4-----|

 

GUITAR 2:

 

e|---------|
B|---------|
G|---------|
D|------9--|
A|--11-----|
E|---------|

 

GUITAR 1:

 

e|---------------------------------------------------------------------------------------------------|
B|---------------------------------------------------------------------------------------------------|
G|--6--6--x--x--x--x--x--x--6--x--x--6--x--x--6--x---------------------------------------------------|
D|--6--6--x--x--x--x--x--x--6--x--x--6--x--x--6--x---7--7--x--x--x--x--x--x--7--x--x--7--x--x--7--x--|
A|--4--4--x--x--x--x--x--x--4--x--x--4--x--x--4--x---7--7--x--x--x--x--x--x--7--x--x--7--x--x--7--x--|
E|---------------------------------------------------5--5--x--x--x--x--x--x--5--x--x--5--x--x--5--x--|

 

GUITAR 2:

 

e|-----------------------------------------------------------------------------------------------------------|
B|-----------------------------------------------------------------------------------------------------------|
G|-----------9------9-------------------9------9-------------------9------9-h-11-p-9-------------------------|
D|--11---11-----11-----11---9-h-11--11-----11-----11---9-h-11--11-----11--------------11--9--11--11-------9--|
A|----------------------------------------------------------------------------------------------------11-----|
E|-----------------------------------------------------------------------------------------------------------|

 

GUITAR 1:

 

e|------------------------------------------------------------------------------------------------|
B|------------------------------------------------------------------------------------------------|
G|---------------------------------------------------------------------------------------------4--|
D|--4--4--x--x--x--x--x--x--4--x--x--4--x--x--4--x---6--6--x--x--x--x--x--x--6--x--x--6--x--6--4--|
A|--4--4--x--x--x--x--x--x--4--x--x--4--x--x--4--x---6--6--x--x--x--x--x--x--6--x--x--6--x--6--2--|
E|--2--2--x--x--x--x--x--x--2--x--x--2--x--x--2--x---4--4--x--x--x--x--x--x--4--x--x--4--x--4-----|

 

GUITAR 2:

 

e|----------------------------------------------------------------------------------------------------------|
B|------------------------------------------------------------------12------14--12--------------------------|
G|-----------9------9-------------------9------9--11---11-/-13--13------13----------13--11--13--13----------|
D|--11---11-----11-----11---9-h-11--11-----11------------------------------------------------------------9--|
A|---------------------------------------------------------------------------------------------------11-----|
E|----------------------------------------------------------------------------------------------------------|

 

GUITAR 1:

 

e|---------------------------------------------------------------------------------------------------|
B|---------------------------------------------------------------------------------------------------|
G|--6--6--x--x--x--x--x--x--6--x--x--6--x--x--6--x---------------------------------------------------|
D|--6--6--x--x--x--x--x--x--6--x--x--6--x--x--6--x---7--7--x--x--x--x--x--x--7--x--x--7--x--x--7--x--|
A|--4--4--x--x--x--x--x--x--4--x--x--4--x--x--4--x---7--7--x--x--x--x--x--x--7--x--x--7--x--x--7--x--|
E|---------------------------------------------------5--5--x--x--x--x--x--x--5--x--x--5--x--x--5--x--|

 

GUITAR 2:

 

e|-----------------------------------------------------------------------------------------------------------|
B|-----------------------------------------------------------------------------------------------------------|
G|-----------9------9-------------------9------9-------------------9------9-h-11-p-9-------------------------|
D|--11---11-----11-----11---9-h-11--11-----11-----11---9-h-11--11-----11--------------11--9--11--11-------9--|
A|----------------------------------------------------------------------------------------------------11-----|
E|-----------------------------------------------------------------------------------------------------------|

 

GUITAR 1:

 

e|------------------------------------------------------------------------------------------------|
B|------------------------------------------------------------------------------------------------|
G|------------------------------------------------------------------------------------------------|
D|--4--4--x--x--x--x--x--x--4--x--x--4--x--x--4--x---6--6--x--x--x--x--x--x--6--5--4--------------|
A|--4--4--x--x--x--x--x--x--4--x--x--4--x--x--4--x---6--6--x--x--x--x--x--x-----------7--4--------|
E|--2--2--x--x--x--x--x--x--2--x--x--2--x--x--2--x---4--4--x--x--x--x--x--x-----------------7--6--|

 

GUITAR 2:

 

e|--------------------------------------------------------------------------------------------------|
B|------------------------------------------------------------------12------14--12------------------|
G|-----------9------9-------------------9------9--11---11-/-13--13------13----------13--11--13--13--|
D|--11---11-----11-----11---9-h-11--11-----11-------------------------------------------------------|
A|--------------------------------------------------------------------------------------------------|
E|--------------------------------------------------------------------------------------------------|

 


Pre-Chorus/Pre-Estribillo:

 

GUITAR 1:

e|--------------------------------------------------------------------------------------------------|
B|--------------------------------------------------------------------------------------------------|
G|-----------------------------------------------------------------------------6--x--x--6--x--x--x--|
D|--7--7--x--x--x--x--x--x--7--x--x--x--x--x--x--x---(6)-x--x--x--x--x--x--x---6--x--x--6--x--x--x--|
A|--7--7--x--x--x--x--x--x--7--x--x--x--x--x--x--x---(6)-x--x--x--x--x--x--x---4--x--x--4--x--x--x--|
E|--5--5--x--x--x--x--x--x--5--x--x--x--x--x--x--x---(4)-x--x--x--x--x--x--x------------------------|

 

GUITAR 2:

 

e|-------------------------------------------------------------------------------------------------|
B|-------------------------------------------------------------------------------------------------|
G|--9--9--11--9--11-/-13---9--9--11--9--11-/-13---11--9--11--9--11--9--11--13--11--9--9--9---9--8--|
D|-------------------------------------------------------------------------------------------------|
A|-------------------------------------------------------------------------------------------------|
E|-------------------------------------------------------------------------------------------------|

 

GUITAR 1:

 

e|-------------------------------------------------------------------------------------------------|
B|-------------------------------------------------------------------------------------------------|
G|------------------------------------------8--8--8--8--8--8--8------------------------------------|
D|--7--7--7---6--6--6---4--4--4---2--2--2---8--8--8--8--8--8--8---6--6--x--x--x--x--x--x--6--6--6--|
A|--7--7--7---6--6--6---4--4--4---2--2--2---6--6--6--6--6--6--6---6--6--x--x--x--x--x--x--6--6--6--|
E|--5--5--5---4--4--4---2--2--2---0--0--0-------------------------4--4--x--x--x--x--x--x--4--4--4--|

 

GUITAR 2:

 

e|--------------------------------------------------------------------------------------------|
B|------------------------------------------------------------------12------------------------|
G|-------8--9--8---9--11--9---11--13--11---13--14--13---13--13--14------14--11-/-13----9--11--|
D|--11----------------------------------------------------------------------------------------|
A|--------------------------------------------------------------------------------------------|
E|--------------------------------------------------------------------------------------------|

 


Chorus/Estribillo:

 

GUITAR 1:

 

e|-----------------------------------------------------------------|
B|-----------------------------------------------------------------|
G|--6--6--6--6--6-------------------4--4--4--4--4------------------|
D|--6--6--6--6--6---7--7--7--7--7---4--4--4--4--4---6--6--6--6--6--|
A|--4--4--4--4--4---7--7--7--7--7---2--2--2--2--2---6--6--6--6--6--|
E|------------------5--5--5--5--5-------------------4--4--4--4--4--|

 

GUITAR 2:

 

e|--------------------------------------------------------------------------------------------------|
B|--------------------------------------------------------------------------------------------------|
G|--13--13--13--13--13--13--13--13-----------8--8--9---11--11--11--11--11--11--11--11------------8--|
D|-----------------------------------11--11--------------------------------------------9--9--11-----|
A|--------------------------------------------------------------------------------------------------|
E|--------------------------------------------------------------------------------------------------|

 

GUITAR 1:

 

e|-----------------------------------------------------------------|
B|-----------------------------------------------------------------|
G|--6--6--6--6--6-------------------4--4--4--4--4------------------|
D|--6--6--6--6--6---4--4--4--4--4---4--4--4--4--4---6--6--6--6--6--|
A|--4--4--4--4--4---4--4--4--4--4---2--2--2--2--2---6--6--6--6--6--|
E|------------------2--2--2--2--2-------------------4--4--4--4--4--|

 

GUITAR 2:

 

e|-------------------------------------------------------------------------------|
B|-------------12----------14--14--14--14--12--12--12----------------------------|
G|--9--11--13------14--14------------------------------13--11--11-/-13----9--11--|
D|-------------------------------------------------------------------------------|
A|-------------------------------------------------------------------------------|
E|-------------------------------------------------------------------------------|

 

GUITAR 1:

 

e|-----------------------------------------------------------------|
B|-----------------------------------------------------------------|
G|--6--6--6--6--6-------------------4--4--4--4--4------------------|
D|--6--6--6--6--6---7--7--7--7--7---4--4--4--4--4---6--6--6--6--6--|
A|--4--4--4--4--4---7--7--7--7--7---2--2--2--2--2---6--6--6--6--6--|
E|------------------5--5--5--5--5-------------------4--4--4--4--4--|

 

GUITAR 2:

 

e|--------------------------------------------------------------------------------------------------|
B|--------------------------------------------------------------------------------------------------|
G|--13--13--13--13--13--13--13--13-----------8--8--9---11--11--11--11--11--11--11--11------------8--|
D|-----------------------------------11--11--------------------------------------------9--9--11-----|
A|--------------------------------------------------------------------------------------------------|
E|--------------------------------------------------------------------------------------------------|

 

GUITAR 1:

 

e|-----------------------------------------------------------------|
B|-----------------------------------------------------------------|
G|--6--6--6--6--6-------------------4--4--4--4--4------------------|
D|--6--6--6--6--6---4--4--4--4--4---4--4--4--4--4---6--6--6--6--6--|
A|--4--4--4--4--4---4--4--4--4--4---2--2--2--2--2---6--6--6--6--6--|
E|------------------2--2--2--2--2-------------------4--4--4--4--4--|

 

GUITAR 2:

 

e|----------------------------------------------------------------------|
B|-------------12----------14--14--14--14--12--12--12-------------------|
G|--9--11--13------14--14------------------------------13--11--11-/-13--|
D|----------------------------------------------------------------------|
A|----------------------------------------------------------------------|
E|----------------------------------------------------------------------|

 

GUITAR 1:

 

e|--------------------------------------------------------------|
B|--------------------------------------------------------------|
G|--5--6--8------6--4--2--2---4--4---6--6---4--4---2--2---4--4--|
D|-----------6---------2--2---4--4---6--6---4--4---2--2---4--4--|
A|--3--4--6------4--2--0--0---2--2---4--4---2--2---0--0---2--2--|
E|-----------4--------------------------------------------------|

 

GUITAR 2:

 

e|--------------------------------------------------------------|
B|----------------------------------------------9---------------|
G|--13--11--9---8-----8--8-/-9---13--11--9---8-----8--8--8-/-9--|
D|-----------------9--------------------------------------------|
A|--------------------------------------------------------------|
E|--------------------------------------------------------------|

 


Outro:

 

GUITAR 1:

 

e|---------------------------------------------------------------------------------------------|
B|---------------------------------------------------------------------------------------------|
G|--6--x--x--6--x--6--6-------------------------4--x--x--4--x--4--4-------------4--6--9--8--6--|
D|--6--x--x--6--x--6--6---7--x--x--7--x--x--x---4--x--x--4--x--4--4---6--x--x------------------|
A|--4--x--x--4--x--4--4---7--x--x--7--x--x--x---2--x--x--2--x--2--2---6--x--x---2--4--7--6--4--|
E|------------------------5--x--x--5--x--x--x-------------------------4--x--x------------------|

 

GUITAR 2:

 

e|-----9-----9-----9--------------------9--12--11--9--|
B|--9-----9--12-b--12-b---12--12----12----------------|
G|----------------------------------------------------|
D|----------------------------------------------------|
A|----------------------------------------------------|
E|----------------------------------------------------|

Get Along - Tron544
00:00 / 00:00

©2019 by Fefe - Tron544

Sigueme en:

  • YouTube - White Circle
  • Facebook - White Circle
  • Instagram - White Circle
  • Twitter - White Circle
This site was designed with the
.com
website builder. Create your website today.
Start Now