~ FUWA FUWA TIME ~

TABLATURAS ~ By Fefe - Tron544

 

Intro:

 

              /~~~~~~~~~~~REAPEAT~x4~/~REPITE~x4~~~~~~~~~\

e|-----------|--------------------------------------------|

B|-----------|--------------------------------------------|

G|-----------|--9--9--9--9--9----9----2--2--2----4--4--4--|

D|-----------|--9--9--9--9--9----9----2--2--2----4--4--4--|

A|--7--7--7--|--7--7--7--7--7----7----0--0--0----2--2--2--|

E|-----------|--------------------------------------------|

 

 

Verse/Estrofa:

 

GUITAR 1:

 

e|-------------------------------------------------------------------------------|

B|-------------------------------------------------------------------------------|

G|--9--------------9----------------------9--------------9--9-----9-----9--9--9--|

D|--9--------------9---7--------------7---9--------------9--9-----9-----9--9--9--|

A|--7--x--x--x--x--7---7--------------7---7--x--x--x--x--7--7--x--7--x--7--7--6--|

E|---------------------5--x--x--x--x--5------------------------------------------|

 

GUITAR 2:

 

e|---------------------------------------------------|

B|------------------------------------------9--------|

G|--9--9--9--9--9--9--9--9--9--9--9--9--11-----9--9--|

D|---------------------------------------------------|

A|---------------------------------------------------|

E|---------------------------------------------------|

 

GUITAR 1:

 

e|-------------------------------------------------------------------------------|

B|-------------------------------------------------------------------------------|

G|--6--------------6-------------------------------------------------------------|

D|--6--------------6---7--------------7---9--------------9--9-----9-----9--9--9--|

A|--4--x--x--x--x--4---7--------------7---9--------------9--9-----9-----9--9--9--|

E|---------------------5--x--x--x--x--5---7--x--x--x--x--7--7--x--7--x--7--7--7--|

 

GUITAR 2:

 

e|----------------------------------------------------------|

B|----------------------------------------------------------|

G|--9--9--9--9--9--9--9--9--9--9--9--9--11--9--8--9--9--11--|

D|----------------------------------------------------------|

A|----------------------------------------------------------|

E|----------------------------------------------------------|

 

 

Pre-Chorus/Pre-Estribillo:

 

GUITAR 1:

 

e|----------------------------------------------|

B|-----------------------2---4----------10---9--|

G|-----------------------2---4------9---9----9--|

D|--7------6------4------4---2------9---7----7--|

A|--7------6------4-----------------7-----------|

E|--5------4------2-----------------------------|

 

GUITAR 2:

 

e|----------------------|---------------------|-------------------------------------------------|

B|--9--9----------------|--9--9---------------|--9--9-------------------------------------------|

G|--------11--9------9--|--------11--9-----9--|--------11--9--9------9--11--8------8------------|

D|---------------11-----|---------------9-----|------------------11------------11-----11--9--9--|

A|----------------------|---------------------|-------------------------------------------------|

E|----------------------|---------------------|-------------------------------------------------|

 

GUITAR 1:

 

e|-----------------------------------------|

B|-----------------------------------------|

G|----------------6------------------------|

D|--7------6------6------7------8-------9--|

A|--7------7------4------7------9-------9--|

E|--5------4-------------5------6-------7--|

 

GUITAR 2:

 

e|----------------------|----------------------|----------------------------------|

B|--9--9----------------|--9--9------------12--|--10--9------9------9---------12--|

G|--------11--9------9--|--------11--9---------|---------11-----11-----11--9------|

D|---------------11-----|---------------9------|----------------------------------|

A|----------------------|----------------------|----------------------------------|

E|----------------------|----------------------|----------------------------------|

 

 

Chorus/Estribillo:

 

GUITAR 1:

 

e|------------------------------|

B|------------------------------|

G|--6----8----9----2----4----5--|

D|--6----9----9----2----4----6--|

A|--4----6----7----0----2----3--|

E|------------------------------|

 

GUITAR 2:

 

e|------------------------------------------------------------------|

B|--9--10--12--12--12--9--10--12--12--12--9--10--12--12--12--9------|

G|--------------------------------------------------------------11--|

D|------------------------------------------------------------------|

A|------------------------------------------------------------------|

E|------------------------------------------------------------------|

 

GUITAR 1:

 

e|--------------------|

B|--------------------|

G|--6----2---------4--|

D|--6----2----4----4--|

A|--4----0----4----2--|

E|------------2-------|

 

GUITAR 2:

 

e|-----------------------------------------|

B|--9---------14--12--9---------9----------|

G|-----11--9-------------11--9-----11--11--|

D|-----------------------------------------|

A|-----------------------------------------|

E|-----------------------------------------|

 

GUITAR 1:

 

e|------------------------------|

B|------------------------------|

G|--6----8----9----2----4----5--|

D|--6----9----9----2----4----6--|

A|--4----6----7----0----2----3--|

E|------------------------------|

 

GUITAR 2:

 

e|----------------------------------------------------------------|

B|--9--10--12--12--12--9--10--12--12--12--9--10--12--12--12--12b--|

G|----------------------------------------------------------------|

D|----------------------------------------------------------------|

A|----------------------------------------------------------------|

E|----------------------------------------------------------------|

 

GUITAR 1:

 

e|---------------|--------------------------------------------|

B|---------------|--------------------------------------------|

G|--6----2----4--|--9--9--9--9--9----9----2--2--2----4--4--4--|

D|--6----2----4--|--9--9--9--9--9----9----2--2--2----4--4--4--|

A|--4----0----2--|--7--7--7--7--7----7----0--0--0----2--2--2--|

E|---------------|--------------------------------------------|

 

GUITAR 2:

 

e|---------------------------------|--------------|

B|--9---------9------10--9---------|--------9-----|

G|-----11--9----------------11--9--|--9--9-----9--|

D|---------------------------------|--------------|

A|---------------------------------|--------------|

E|---------------------------------|--------------|

 

 

Fuwa Fuwa Time - Tron544
00:00 / 00:00

©2019 by Fefe - Tron544

Sigueme en:

  • YouTube - White Circle
  • Facebook - White Circle
  • Instagram - White Circle
  • Twitter - White Circle
This site was designed with the
.com
website builder. Create your website today.
Start Now