TABLATURAS ~ By Fefe - Tron544

 
 

Intro:

GUITAR (Rhythm):

               /~~~~~~~~( REPEAT x2 / REPITE x2)~~~~~~~\
e|------------|--7--7--7--7--7---7---5--5--5---7--7--7--|
B|------------|--9--9--9--9--9---9---5--5--5---7--7--7--|
G|------------|--9--9--9--9--9---9---6--6--6---8--8--8--|
D|------------|--9--9--9--9--9---9---7--7--7---9--9--9--|
A|--(7)-x--x--|--7--7--7--7--7---7---7--7--7---9--9--9--|
E|------------|----------------------5--5--5---7--7--7--|

BASS:

G|------------------|
D|------------------|
A|------------------|
E|--1--\--12--/--1--|

GUITAR (Rhythm):

e|--7--7--7--7--7---7---5--5--5---7--7--7---7--7--7--7--7---7---5--5--5---7--7--7--|
B|--9--9--9--9--9---9---5--5--5---7--7--7---9--9--9--9--9---9---5--5--5---7--7--7--|
G|--9--9--9--9--9---9---6--6--6---8--8--8---9--9--9--9--9---9---6--6--6---8--8--8--|
D|--9--9--9--9--9---9---7--7--7---9--9--9---9--9--9--9--9---9---7--7--7---9--9--9--|
A|--7--7--7--7--7---7---7--7--7---9--9--9---7--7--7--7--7---7---7--7--7---9--9--9--|
E|----------------------5--5--5---7--7--7-----------------------5--5--5---7--7--7--|

GUITAR (Lead):

e|--12-#-12-#-12-#-12-#-12-#-12-#-12-#-12-#--12-#-12-#-12-#-12-#-12-#-12-#-12-#-12-#--|
B|------------------------------------------------------------------------------------|
G|--9--#-9--#-9--#-9--#-9--#-9--#-9--#-9--#--9--#-9--#-9--#-9--#-9--#-9--#-9--#-9--#--|
D|------------------------------------------------------------------------------------|
A|------------------------------------------------------------------------------------|
E|------------------------------------------------------------------------------------|

BASS:

G|---------------------------------------------------------------------------------------------------|
D|---------------------------------------------------------------------------------------------------|
A|--------------7-----7------------------------------------------7-----7-----------------------------|
E|--0--0--0--0-----0-----0--5--0--5--0--7--0--7--0---0--0--0--0-----0-----0--5--0--5--0--7--0--7--0--|

 


Verse/Estrofa:

GUITAR (Rhythm):

e|--7--x--x--x--x--7---5--x--x--x--x--5---7--x--x--x--7--x---------7--x--x--------------|
B|--9--x--x--x--x--9---5--x--x--x--x--5---9--x--x--x--9--x---------9--x--x--7--7--x--x--|
G|--9--x--x--x--x--9---6--x--x--x--x--6---9--x--x--x--9--x---------9--x--x--8--8--x--x--|
D|--9--x--x--x--x--9---7--x--x--x--x--7---9--x--x--x--9--x--9------9--x--x--9--9--x--x--|
A|--7--x--x--x--x--7---7--x--x--x--x--7---7--x--x--x--7--x--6-/-7--7--x--x--6--6--x--x--|
E|---------------------5--x--x--x--x--5-------------------------------------------------|

GUITAR (Lead):

e|------------------------------------------------------------------------|
B|------------------------------------------------------------------------|
G|-#-#-9-#-9-9-#-#-#-#-9-#-9-9-#-#-#-#-9-#-9-9-#-9-#-9-#-9-9-/-11--11-11--|
D|------------------------------------------------------------------------|
A|------------------------------------------------------------------------|
E|------------------------------------------------------------------------|

GUITAR (Vocals):

e|-----------------------------------------------------|
B|--------------------------------------------9--------|
G|--9--9--9--9--9--9--9---9--9--9--9---9--11-----9--9--|
D|-----------------------------------------------------|
A|-----------------------------------------------------|
E|-----------------------------------------------------|

BASS:

G|-----------------------------------------------------------------------------------------------|
D|-----------------------------------------------------------------------------------------------|
A|--------------------------------------------------------------------------/-7--7--7---6-----6--|
E|--0--0--0--0--0--0--0--0--/-5--5--5--5--5--5--5--5---0--0--0--0--0--0--0-----------------7-----|

GUITAR (Rhythm):

e|--4--x--x--x--x--4---0--x--x--x--x--0---2--x--x--x--2--2---x--x--2--|
B|--5--x--x--x--x--5---2--x--x--x--x--2---4--x--x--x--4--4---x--x--4--|
G|--6--x--x--x--x--6---2--x--x--x--x--2---4--x--x--x--4--4---x--x--4--|
D|--6--x--x--x--x--6---2--x--x--x--x--2---4--x--x--x--4--4---x--x--4--|
A|--4--x--x--x--x--4---0--x--x--x--x--0---2--x--x--x--2--2---x--x--2--|
E|--------------------------------------------------------------------|

GUITAR (Lead):

e|------------------------------------------------------7-----|
B|------------------------------------------------------10-b--|
G|--#-#-9-#-9-9-#-9-#-9-#-#-9-9-9-9--#-#-8-#-8-8-#-8-#--------|
D|------------------------------------------------------------|
A|------------------------------------------------------------|
E|------------------------------------------------------------|

GUITAR (Vocals):

e|--------------------------------------------------------------|
B|--------------------------------------------------------------|
G|--9--9--9--9--9--9--9--9--9--9--9--9--9--11--9--8---9--9--11--|
D|--------------------------------------------------------------|
A|--------------------------------------------------------------|
E|--------------------------------------------------------------|

BASS:

G|--------------------------------------------------------------------------------------------------|
D|--------------------------------------------------------------------------------------------------|
A|--4--4--4--4--4--4--4--4---0--0--0--0--0--0--0--0---2--2--2--2--2--2--2--2---2-/-14---14--14--14--|
E|--------------------------------------------------------------------------------------------------|


Pre-Chorus/Pre-Estribillo:

GUITAR (Rhythm):

e|--0------0--0--0---#--#---4------4--4--4---#--#--|
B|--2------2--2--2---#--#---5------5--5--5---#--#--|
G|--2------2--2--2---#--#---4------4--4--4---#--#--|
D|--2------2--2--2---#--#---6------6--6--6---#--#--|
A|--0------0--0--0---#--#---7------7--7--7---#--#--|
E|--------------------------4------4--4--4---#--#--|

GUITAR (Lead):

e|-------------------------------|
B|--------10-----------------17--|
G|--------9------------------16--|
D|--/-7---------------/-14-------|
A|-------------------------------|
E|-------------------------------|

GUITAR (Vocals):

e|----------------|-------------------------------------------------------------|
B|--9---9---------|------------------9---9------------------------9---9---------|
G|---------11--9--|-------9---9-------------11--9------9---9-------------11--9--|
D|----------------|--11----------------------------9----------------------------|
A|----------------|-------------------------------------------------------------|
E|----------------|-------------------------------------------------------------|

GUITAR (Harmony):

e|------------------|--------------------------------------------|
B|--12---12--10--9--|------9---9------12---12--10--9------9---9--|
G|------------------|--9------------------------------9----------|
D|------------------|--------------------------------------------|
A|------------------|--------------------------------------------|
E|------------------|--------------------------------------------|

BASS:

G|--------------------------------------------------------------------------------------------------------|
D|--------------------------------------------------------------------------------------------------------|
A|---------------------/-12--12--12---10-h-12--12--12----------------------/-11--11--11---9-h-11--11--11--|
E|--5---5--5--5--5--5-----------------------------------4---4--4--4--4--4---------------------------------|

GUITAR (Rhythm):

e|------2---#--#-------2---#--#---0------0--0--0--|
B|------2---#--#-------4---#--#---0------0--0--0--|
G|--2-------#--#-----------#--#---1------2--2--1--|
D|--4-------#--#---4-------#--#---2------2--2--2--|
A|--4-------#--#---2-------#--#---2------2--2--2--|
E|--2-------#--#-----------#--#---0------0--0--0--|

GUITAR (Lead):

e|----------------------------------------|
B|-------14-----------16----7----8--8--7--|
G|-----------14-------16----7----7--7--7--|
D|--14-----------14---16----7----7--7--7--|
A|----------------------------------------|
E|----------------------------------------|

GUITAR (Vocals):

e|--------------------------------------------|
B|--------------------------------------------|
G|--9-------9----11---8--------8--------------|
D|------11----------------11-------11---9--9--|
A|--------------------------------------------|
E|--------------------------------------------|

BASS:

G|--------------------------------------------------------------------------------------------------|
D|--------------------------------------------------------------------------------------------------|
A|---------------------------2--2--2--2--2--2--2--2------------------------/-7--7--7---5-h-7--7--7--|
E|--2--2--2--2--2--2--2--2----------------------------0--0--0--0--0--0--0---------------------------|

GUITAR (Rhythm):

e|--0------0--0--0---#--#-------4---#--#-------4---#--#--|
B|--2------2--2--2---#--#-------5---#--#-------6---#--#--|
G|--2------2--2--2---#--#-------4---#--#---4---4---#--#--|
D|--2------2--2--2---#--#---6-------#--#---6-------#--#--|
A|--0------0--0--0---#--#---7-------#--#---4-------#--#--|
E|--------------------------4-------#--#-----------#--#--|

GUITAR (Lead):

e|--------------------------------13--|
B|--------10-----------------17---14--|
G|--------9------------------16---13--|
D|--/-7---------------/-14------------|
A|------------------------------------|
E|------------------------------------|

GUITAR (Vocals):

e|----------------|---------------------------------------------------|
B|--9---9---------|------------------9---9----------------12------10--|
G|---------11--9--|-------9---9-------------11--9---------------------|
D|----------------|--11----------------------------9------------------|
A|----------------|---------------------------------------------------|
E|----------------|---------------------------------------------------|

GUITAR (Harmony):

e|------------------|----------------------------------------13--|
B|--12---12--10--9--|------9---9------12---12--10--9-------------|
G|------------------|--9------------------------------9----------|
D|------------------|--------------------------------------------|
A|------------------|--------------------------------------------|
E|------------------|--------------------------------------------|

BASS:

G|-------------------------------------------------------------------------------------------------------|
D|-------------------------------------------------------------------------------------------------------|
A|---------------------/-12--12--12---10-h-12--12--12----------------------------4--4--4--4--4-----4-----|
E|--5---5--5--5--5--5-----------------------------------4--4--4--4--4--4--4--4------------------4-----4--|

GUITAR (Rhythm):

e|--2--2--2--2--2--2----------------------2---#--2--#--#--2---#--2--2--#--4--#--------|
B|--2--2--2--2--2--2---2--2--2--2--2--2---4---#--4--#--#--4---#--4--4--#--5--#--7--#--|
G|--2--2--2--2--2--2---3--3--3--3--3--3---4---#--4--#--#--4---#--4--4--#--6--#--8--#--|
D|--4--4--4--4--4--4---4--4--4--4--4--4---4---#--4--#--#--4---#--4--4--#--6--#--9--#--|
A|--4--4--4--4--4--4---1--1--1--1--1--1---2---#--2--#--#--2---#--2--2--#--4--#--6--#--|
E|--2--2--2--2--2--2------------------------------------------------------------------|

GUITAR (Lead):

e|------------------------------------------------------------------------|
B|------------------------------------------------------------------------|
G|---------------------------------------------#--8--8--/-9--9--/-11--11--|
D|--4----------8----------9---#--9--#--#--9----#--------------------------|
A|----------------------------#-----#--#-------#--6--6--/-7--7--/-9---9---|
E|--2----------6----------7---#--7--#--#--7-------------------------------|

GUITAR (Vocals):

e|---------------------------------|
B|--9------9------9------------12--|
G|------9------9------11---9-------|
D|---------------------------------|
A|---------------------------------|
E|---------------------------------|

BASS:

G|--------------------------------------------------------------------------------------|
D|--------------------------------------------------------------------------------------|
A|--------------------------------------------------------------------------------6--6--|
E|--2--2--2--2--2--2--2--2---6--6--6--6--6--6--6--6---7---7---7----7--7--7--9--9--------|


Chorus/Estribillo:

GUITAR (Rhythm):

e|--7--7--7--7--7--7---0--0--0--0--0--0---2--2--2--2--2--2---------------------|
B|--9--9--9--9--9--9---2--2--2--2--2--2---4--4--4--4--4--4---4--4--4--4--4--4--|
G|--9--9--9--9--9--9---2--2--2--2--2--2---4--4--4--4--4--4---5--5--5--5--5--5--|
D|--9--9--9--9--9--9---2--2--2--2--2--2---4--4--4--4--4--4---4--4--4--4--4--4--|
A|--7--7--7--7--7--7---0--0--0--0--0--0---2--2--2--2--2--2---3--3--3--3--3--3--|
E|-----------------------------------------------------------------------------|

GUITAR (Lead):

e|--12-#-12-#-12-#-12-#-12-#-12-#-12-#-12-#--11-#-11-#-11-#-11-#-11-#-11-#-11-#-11-#--|
B|------------------------------------------------------------------------------------|
G|--9--#-9--#-9--#-9--#-9--#-9--#-9--#-9--#--8--#-8--#-8--#-8--#-8--#-8--#-8--#-8--#--|
D|------------------------------------------------------------------------------------|
A|------------------------------------------------------------------------------------|
E|------------------------------------------------------------------------------------|

GUITAR (Chorus):

e|-----------7---------7---------7--------------------7-------------------8---------|
B|--7-----7------7---------7---------7-------7-----7------7------7-----7------7-----|
G|-----9------------9---------9---------9-------8------------8------8------------8--|
D|----------------------------------------------------------------------------------|
A|----------------------------------------------------------------------------------|
E|----------------------------------------------------------------------------------|

GUITAR (Vocals):

e|----------|---------------------------------------------------------------------------|
B|--9---10--|--12---12--12---9--10--12---12--12---9--10--12---12---10-p-9--------9------|
G|----------|--------------------------------------------------------------11-------11--|
D|----------|---------------------------------------------------------------------------|
A|----------|---------------------------------------------------------------------------|
E|----------|---------------------------------------------------------------------------|


GUITAR (Harmony):

e|-------11--|--12---12--12-------11--12---12--12-------9--11---11---11-p-9--8----------|
B|--12-------|----------------12--------------------12----------------------------------|
G|-----------|--------------------------------------------------------------------9--8--|
D|-----------|--------------------------------------------------------------------------|
A|-----------|--------------------------------------------------------------------------|
E|-----------|--------------------------------------------------------------------------|

BASS:

G|-----------------------------------------------------------------------------------------------------|
D|-----------------------------------------------------------------------------------------------------|
A|-----------/-7---7--7--7---0--0--0--0--0--0--0--0---2--2--2--2--2--2--2--2---3--3--3--3--3-----2--3--|
E|--0--0--0-----------------------------------------------------------------------------------4--------|

GUITAR (Rhythm):

e|--4--4--4--4--4--4---0--0--0--0--0--0---2--2--2--2--2--2---2--2--#--4--#--------|
B|--5--5--5--5--5--5---2--2--2--2--2--2---2--2--2--2--2--2---4--4--#--5--#--7--#--|
G|--6--6--6--6--6--6---2--2--2--2--2--2---2--2--2--2--2--2---4--4--#--6--#--8--#--|
D|--6--6--6--6--6--6---2--2--2--2--2--2---4--4--4--4--4--4---4--4--#--6--#--9--#--|
A|--4--4--4--4--4--4---0--0--0--0--0--0---4--4--4--4--4--4---2--2--#--4--#--6--#--|
E|----------------------------------------2--2--2--2--2--2------------------------|

GUITAR (Lead):

e|--12-#-12-#-12-#-12-#-12-#-12-#-12-#-12-#--12-#-12-#-12-#-12-#------------------------------|
B|--------------------------------------------------------------------------------------------|
G|--9--#-9--#-9--#-9--#-9--#-9--#-9--#-9--#--9--#-9--#-9--#-9--#---#--8--8--/-9--9--/-11--11--|
D|-----------------------------------------------------------------#--------------------------|
A|-----------------------------------------------------------------#--6--6--/-7--7--/-9---9---|
E|--------------------------------------------------------------------------------------------|

GUITAR (Chorus):

e|-----------7---------7---------7--------------------5---------5------------------------|
B|--7-----7------7---------7---------7-------7-----7------7-----7----4--4---5--5---7--7--|
G|-----9------------9---------9---------9-------6------------6--6----4--4---6--6---8--8--|
D|---------------------------------------------------------------------------------------|
A|---------------------------------------------------------------------------------------|
E|---------------------------------------------------------------------------------------|

GUITAR (Vocals):

e|------9---------------------------------------|
B|----------12--9---------9--------------9--10--|
G|--9--------------9-----------11--11-----------|
D|--------------------11------------------------|
A|----------------------------------------------|
E|----------------------------------------------|

GUITAR (Harmony):

e|------------------------------------------11--|
B|-------9---9--------------------------12------|
G|--------------9----------9----9--9------------|
D|--11-------------11---------------------------|
A|---------------------12-----------------------|
E|----------------------------------------------|

BASS:

G|------------------------------------------------------------------------------------------------------|
D|------------------------------------------------------------------------------------------------------|
A|--4--4--4--4--4--4--4--4---------------------------------------/-9--9--9--9---------------------6--6--|
E|---------------------------4-h-5--5--4-h-5--5--5---2--2--2--2-----------------7--7--7--7--9--9--------|

GUITAR (Rhythm):

e|--7--7--7--7--7--7---0--0--0--0--0--0---2--2--2--2--2--2---------------------|
B|--9--9--9--9--9--9---2--2--2--2--2--2---4--4--4--4--4--4---4--4--4--4--4--4--|
G|--9--9--9--9--9--9---2--2--2--2--2--2---4--4--4--4--4--4---5--5--5--5--5--5--|
D|--9--9--9--9--9--9---2--2--2--2--2--2---4--4--4--4--4--4---4--4--4--4--4--4--|
A|--7--7--7--7--7--7---0--0--0--0--0--0---2--2--2--2--2--2---3--3--3--3--3--3--|
E|-----------------------------------------------------------------------------|

GUITAR (Lead):

e|--12-#-12-#-12-#-12-#-12-#-12-#-12-#-12-#--11-#-11-#-11-#-11-#-11-#-11-#-11-#-11-#--|
B|------------------------------------------------------------------------------------|
G|--9--#-9--#-9--#-9--#-9--#-9--#-9--#-9--#--8--#-8--#-8--#-8--#-8--#-8--#-8--#-8--#--|
D|------------------------------------------------------------------------------------|
A|------------------------------------------------------------------------------------|
E|------------------------------------------------------------------------------------|

GUITAR (Chorus):

e|-----------7---------7---------7--------------------7-------------------8---------|
B|--7-----7------7---------7---------7-------7-----7------7------7-----7------7-----|
G|-----9------------9---------9---------9-------8------------8------8------------8--|
D|----------------------------------------------------------------------------------|
A|----------------------------------------------------------------------------------|
E|----------------------------------------------------------------------------------|

GUITAR (Vocals):

e|-----------------------------------------------------------------|
B|--12---12--12---9--10--12---12--12---9--10--12------13----9------|
G|-------------------------------------------------------------11--|
D|-----------------------------------------------------------------|
A|-----------------------------------------------------------------|
E|-----------------------------------------------------------------|


GUITAR (Harmony):

e|--12---12--12-------11--12---12--12-------9--11---11----------|
B|----------------12--------------------12----------------------|
G|--------------------------------------------------------9--8--|
D|--------------------------------------------------------------|
A|--------------------------------------------------------------|
E|--------------------------------------------------------------|

BASS:


G|-----------------------------------------------------------------------------------------------------|
D|-----------------------------------------------------------------------------------------------------|
A|-----------/-7---7--7--7---0--0--0--0--0--0--0--0---2--2--2--2--2--2--2--2---3--3--3--3--3-----2--3--|
E|--0--0--0-----------------------------------------------------------------------------------4--------|

GUITAR (Rhythm):

e|--4--4--4--4--4--4---0----2--|
B|--5--5--5--5--5--5---2----4--|
G|--6--6--6--6--6--6---2----4--|
D|--6--6--6--6--6--6---2----4--|
A|--4--4--4--4--4--4---0----2--|
E|-----------------------------|

GUITAR (Lead):

e|--12-#-12-#-12-#-12-#-----------|
B|--------------------------------|
G|--9--#-9--#-9--#-9--#---6----8--|
D|--------------------------------|
A|------------------------4----6--|
E|--------------------------------|

GUITAR (Chorus):

e|-----------7-------------------|
B|--7-----7------7------5-----7--|
G|-----9------------9---6-----8--|
D|-------------------------------|
A|-------------------------------|
E|-------------------------------|

GUITAR (Vocals):

e|------------------------------|
B|------9---9-h-10---9----------|
G|--9--------------------11--9--|
D|------------------------------|
A|------------------------------|
E|------------------------------|

GUITAR (Harmony):

e|------------------------------|
B|------------------------------|
G|-------9---9-h-11---9---8-----|
D|--11-----------------------9--|
A|------------------------------|
E|------------------------------|

BASS:

G|------------------------------------------|
D|------------------------------------------|
A|--4--4--4--4---/-11--11--11--11-----------|
E|----------------------------------5----7--|

 


Outro:

GUITAR (Rhythm):

e|--7--7--7--7--7---7---5--5--5---7--7--7---7--7--7--7--7---7---5--5--5---7--7--7--|
B|--9--9--9--9--9---9---5--5--5---7--7--7---9--9--9--9--9---9---5--5--5---7--7--7--|
G|--9--9--9--9--9---9---6--6--6---8--8--8---9--9--9--9--9---9---6--6--6---8--8--8--|
D|--9--9--9--9--9---9---7--7--7---9--9--9---9--9--9--9--9---9---7--7--7---9--9--9--|
A|--7--7--7--7--7---7---7--7--7---9--9--9---7--7--7--7--7---7---7--7--7---9--9--9--|
E|----------------------5--5--5---7--7--7-----------------------5--5--5---7--7--7--|

GUITAR (Lead):

e|--12-#-12-#-12-#-12-#-12-#-12-#-12-#-12-#--12-#-12-#-12-#-12-#-12-#-12-#-12-#-12-#--|
B|------------------------------------------------------------------------------------|
G|--9--#-9--#-9--#-9--#-9--#-9--#-9--#-9--#--9--#-9--#-9--#-9--#-9--#-9--#-9--#-9--#--|
D|------------------------------------------------------------------------------------|
A|------------------------------------------------------------------------------------|
E|------------------------------------------------------------------------------------|

GUITAR (Vocals):

e|-----------------------------------|
B|---------9-------------------9-----|
G|--9--9------9----------9--9-----9--|
D|-----------------------------------|
A|-----------------------------------|
E|-----------------------------------|

BASS:

G|---------------------------------------------------------------------------------------------------|
D|---------------------------------------------------------------------------------------------------|
A|--------------7-----7------------------------------------------7-----7-----------------------------|
E|--0--0--0--0-----0-----0--5--0--5--0--7--0--7--0---0--0--0--0-----0-----0--5--0--5--0--7--0--7--0--|

GUITAR (Rhythm):

e|--7--7--7--7--7---7---5--5--5---7--7--7---7--7--7--7--7---7---5--5----7--7--|--7--|
B|--9--9--9--9--9---9---5--5--5---7--7--7---9--9--9--9--9---9---5--5----7--7--|--9--|
G|--9--9--9--9--9---9---6--6--6---8--8--8---9--9--9--9--9---9---6--6----8--8--|--9--|
D|--9--9--9--9--9---9---7--7--7---9--9--9---9--9--9--9--9---9---7--7----9--9--|--9--|
A|--7--7--7--7--7---7---7--7--7---9--9--9---7--7--7--7--7---7---7--7----9--9--|--7--|
E|----------------------5--5--5---7--7--7-----------------------5--5----7--7--|-----|

GUITAR (Lead):

e|--12-#-12-#-12-#-12-#-12-#-12-#-12-#-12-#--12-#-12-#-12-#-12-#-----------------|-----|
B|-------------------------------------------------------------------------------|-----|
G|--9--#-9--#-9--#-9--#-9--#-9--#-9--#-9--#--9--#-9--#-9--#-9--#---6--6----8--8--|--9--|
D|-------------------------------------------------------------------------------|-----|
A|-----------------------------------------------------------------4--4----6--6--|--7--|
E|-------------------------------------------------------------------------------|-----|

GUITAR (Vocals):

e|-----------------------------------|
B|---------9-------------------9-----|
G|--9--9------9----------9--9-----9--|
D|-----------------------------------|
A|-----------------------------------|
E|-----------------------------------|

BASS:

G|-----------------------------------------------------------------------------------------|-----|
D|-----------------------------------------------------------------------------------------|-----|
A|--------------7-----7------------------------------------------7-----7-------------------|--7--|
E|--0--0--0--0-----0-----0--5--0--5--0--7--0--7--0---0--0--0--0-----0-----0--5--5----7--7--|-----|

 

~ FUWA FUWA TIME ~

Fuwa Fuwa Time - Tron544
00:00 / 00:00

©2019 by Fefe - Tron544

Sigueme en:

  • YouTube - White Circle
  • Facebook - White Circle
  • Instagram - White Circle
  • Twitter - White Circle
This site was designed with the
.com
website builder. Create your website today.
Start Now